   0
SECTION
  2
HEADER
  9
$ACADVER
  1
AC1015
  9
$ACADMAINTVER
 70
     6
  9
$DWGCODEPAGE
  3
ANSI_1252
  9
$INSBASE
 10
0.0
 20
0.0
 30
0.0
  9
$EXTMIN
 10
-4.4330708661
 20
-0.0177165354
 30
0.0
  9
$EXTMAX
 10
4.4330708661
 20
1.4492519685
 30
0.0
  9
$LIMMIN
 10
0.0
 20
0.0
  9
$LIMMAX
 10
12.0
 20
9.0
  9
$ORTHOMODE
 70
     0
  9
$REGENMODE
 70
     1
  9
$FILLMODE
 70
     1
  9
$QTEXTMODE
 70
     0
  9
$MIRRTEXT
 70
     1
  9
$LTSCALE
 40
1.0
  9
$ATTMODE
 70
     1
  9
$TEXTSIZE
 40
0.1377952756
  9
$TRACEWID
 40
0.05
  9
$TEXTSTYLE
  7
Standard
  9
$CLAYER
  8
0
  9
$CELTYPE
  6
ByLayer
  9
$CECOLOR
 62
   256
  9
$CELTSCALE
 40
1.0
  9
$DISPSILH
 70
     0
  9
$DIMSCALE
 40
1.0
  9
$DIMASZ
 40
0.13
  9
$DIMEXO
 40
0.0393700787
  9
$DIMDLI
 40
0.38
  9
$DIMRND
 40
0.0
  9
$DIMDLE
 40
0.0
  9
$DIMEXE
 40
0.0393700787
  9
$DIMTP
 40
0.0
  9
$DIMTM
 40
0.0
  9
$DIMTXT
 40
0.1377952756
  9
$DIMCEN
 40
0.09
  9
$DIMTSZ
 40
0.0
  9
$DIMTOL
 70
     0
  9
$DIMLIM
 70
     0
  9
$DIMTIH
 70
     1
  9
$DIMTOH
 70
     1
  9
$DIMSE1
 70
     0
  9
$DIMSE2
 70
     0
  9
$DIMTAD
 70
     1
  9
$DIMZIN
 70
     0
  9
$DIMBLK
  1

  9
$DIMASO
 70
     1
  9
$DIMSHO
 70
     1
  9
$DIMPOST
  1

  9
$DIMAPOST
  1

  9
$DIMALT
 70
     0
  9
$DIMALTD
 70
     2
  9
$DIMALTF
 40
25.4
  9
$DIMLFAC
 40
1.0
  9
$DIMTOFL
 70
     0
  9
$DIMTVP
 40
0.0
  9
$DIMTIX
 70
     0
  9
$DIMSOXD
 70
     0
  9
$DIMSAH
 70
     0
  9
$DIMBLK1
  1

  9
$DIMBLK2
  1

  9
$DIMSTYLE
  2
Standard
  9
$DIMCLRD
 70
     0
  9
$DIMCLRE
 70
     0
  9
$DIMCLRT
 70
     0
  9
$DIMTFAC
 40
1.0
  9
$DIMGAP
 40
0.06
  9
$DIMJUST
 70
     0
  9
$DIMSD1
 70
     0
  9
$DIMSD2
 70
     0
  9
$DIMTOLJ
 70
     1
  9
$DIMTZIN
 70
     0
  9
$DIMALTZ
 70
     0
  9
$DIMALTTZ
 70
     0
  9
$DIMUPT
 70
     0
  9
$DIMDEC
 70
     2
  9
$DIMTDEC
 70
     2
  9
$DIMALTU
 70
     2
  9
$DIMALTTD
 70
     2
  9
$DIMTXSTY
  7
Standard
  9
$DIMAUNIT
 70
     0
  9
$DIMADEC
 70
     2
  9
$DIMALTRND
 40
0.0
  9
$DIMAZIN
 70
     0
  9
$DIMDSEP
 70
    46
  9
$DIMATFIT
 70
     3
  9
$DIMFRAC
 70
     0
  9
$DIMLDRBLK
  1

  9
$DIMLUNIT
 70
     2
  9
$DIMLWD
 70
    -2
  9
$DIMLWE
 70
    -2
  9
$DIMTMOVE
 70
     0
  9
$LUNITS
 70
     2
  9
$LUPREC
 70
     2
  9
$SKETCHINC
 40
0.1
  9
$FILLETRAD
 40
0.5
  9
$AUNITS
 70
     0
  9
$AUPREC
 70
     2
  9
$MENU
  1
.
  9
$ELEVATION
 40
0.0
  9
$PELEVATION
 40
0.0
  9
$THICKNESS
 40
0.0
  9
$LIMCHECK
 70
     0
  9
$CHAMFERA
 40
0.0
  9
$CHAMFERB
 40
0.0
  9
$CHAMFERC
 40
0.0
  9
$CHAMFERD
 40
0.0
  9
$SKPOLY
 70
     0
  9
$TDCREATE
 40
2458305.549231805
  9
$TDUCREATE
 40
2458305.840898472
  9
$TDUPDATE
 40
2458305.549333287
  9
$TDUUPDATE
 40
2458305.840999954
  9
$TDINDWG
 40
0.0000000116
  9
$TDUSRTIMER
 40
0.0000000116
  9
$USRTIMER
 70
     1
  9
$ANGBASE
 50
0.0
  9
$ANGDIR
 70
     0
  9
$PDMODE
 70
     0
  9
$PDSIZE
 40
-1.0
  9
$PLINEWID
 40
0.0
  9
$SPLFRAME
 70
     0
  9
$SPLINETYPE
 70
     6
  9
$SPLINESEGS
 70
     8
  9
$HANDSEED
  5
2B4
  9
$SURFTAB1
 70
     6
  9
$SURFTAB2
 70
     6
  9
$SURFTYPE
 70
     6
  9
$SURFU
 70
     6
  9
$SURFV
 70
     6
  9
$UCSBASE
  2

  9
$UCSNAME
  2

  9
$UCSORG
 10
0.0
 20
0.0
 30
0.0
  9
$UCSXDIR
 10
1.0
 20
0.0
 30
0.0
  9
$UCSYDIR
 10
0.0
 20
1.0
 30
0.0
  9
$UCSORTHOREF
  2

  9
$UCSORTHOVIEW
 70
     0
  9
$UCSORGTOP
 10
0.0
 20
0.0
 30
0.0
  9
$UCSORGBOTTOM
 10
0.0
 20
0.0
 30
0.0
  9
$UCSORGLEFT
 10
0.0
 20
0.0
 30
0.0
  9
$UCSORGRIGHT
 10
0.0
 20
0.0
 30
0.0
  9
$UCSORGFRONT
 10
0.0
 20
0.0
 30
0.0
  9
$UCSORGBACK
 10
0.0
 20
0.0
 30
0.0
  9
$PUCSBASE
  2

  9
$PUCSNAME
  2

  9
$PUCSORG
 10
0.0
 20
0.0
 30
0.0
  9
$PUCSXDIR
 10
1.0
 20
0.0
 30
0.0
  9
$PUCSYDIR
 10
0.0
 20
1.0
 30
0.0
  9
$PUCSORTHOREF
  2

  9
$PUCSORTHOVIEW
 70
     0
  9
$PUCSORGTOP
 10
0.0
 20
0.0
 30
0.0
  9
$PUCSORGBOTTOM
 10
0.0
 20
0.0
 30
0.0
  9
$PUCSORGLEFT
 10
0.0
 20
0.0
 30
0.0
  9
$PUCSORGRIGHT
 10
0.0
 20
0.0
 30
0.0
  9
$PUCSORGFRONT
 10
0.0
 20
0.0
 30
0.0
  9
$PUCSORGBACK
 10
0.0
 20
0.0
 30
0.0
  9
$USERI1
 70
     0
  9
$USERI2
 70
     0
  9
$USERI3
 70
     0
  9
$USERI4
 70
     0
  9
$USERI5
 70
     0
  9
$USERR1
 40
0.0
  9
$USERR2
 40
0.0
  9
$USERR3
 40
0.0
  9
$USERR4
 40
0.0
  9
$USERR5
 40
0.0
  9
$WORLDVIEW
 70
     1
  9
$SHADEDGE
 70
     3
  9
$SHADEDIF
 70
    70
  9
$TILEMODE
 70
     0
  9
$MAXACTVP
 70
    64
  9
$PINSBASE
 10
0.0
 20
0.0
 30
0.0
  9
$PLIMCHECK
 70
     0
  9
$PEXTMIN
 10
-4.4330708661
 20
-0.0177165354
 30
0.0
  9
$PEXTMAX
 10
4.4330708661
 20
1.4492519685
 30
0.0
  9
$PLIMMIN
 10
0.0
 20
0.0
  9
$PLIMMAX
 10
0.0
 20
0.0
  9
$UNITMODE
 70
     0
  9
$VISRETAIN
 70
     1
  9
$PLINEGEN
 70
     0
  9
$PSLTSCALE
 70
     1
  9
$TREEDEPTH
 70
  3020
  9
$CMLSTYLE
  2
Standard
  9
$CMLJUST
 70
     0
  9
$CMLSCALE
 40
1.0
  9
$PROXYGRAPHICS
 70
     1
  9
$MEASUREMENT
 70
     0
  9
$CELWEIGHT
370
    -1
  9
$ENDCAPS
280
     0
  9
$JOINSTYLE
280
     0
  9
$LWDISPLAY
290
     1
  9
$INSUNITS
 70
     1
  9
$HYPERLINKBASE
  1

  9
$STYLESHEET
  1

  9
$XEDIT
290
     1
  9
$CEPSNTYPE
380
     0
  9
$PSTYLEMODE
290
     1
  9
$FINGERPRINTGUID
  2
{0B1FD09D-9D96-4966-83C1-A659DF8E557D}
  9
$VERSIONGUID
  2
{FAEB1C32-E019-11D5-929B-00C0DF256EC4}
  9
$EXTNAMES
290
     1
  9
$PSVPSCALE
 40
0.0
  9
$OLESTARTUP
290
     0
  0
ENDSEC
  0
SECTION
  2
CLASSES
  0
CLASS
  1
ACDBDICTIONARYWDFLT
  2
AcDbDictionaryWithDefault
  3
ObjectDBX Classes
 90
        0
280
     0
281
     0
  0
CLASS
  1
VISUALSTYLE
  2
AcDbVisualStyle
  3
ObjectDBX Classes
 90
     4095
280
     0
281
     0
  0
CLASS
  1
MATERIAL
  2
AcDbMaterial
  3
ObjectDBX Classes
 90
     1153
280
     0
281
     0
  0
CLASS
  1
SCALE
  2
AcDbScale
  3
ObjectDBX Classes
 90
     1153
280
     0
281
     0
  0
CLASS
  1
TABLESTYLE
  2
AcDbTableStyle
  3
ObjectDBX Classes
 90
     4095
280
     0
281
     0
  0
CLASS
  1
MLEADERSTYLE
  2
AcDbMLeaderStyle
  3
ACDB_MLEADERSTYLE_CLASS
 90
     4095
280
     0
281
     0
  0
CLASS
  1
SUN
  2
AcDbSun
  3
SCENEOE
 90
     1153
280
     0
281
     0
  0
CLASS
  1
ACDBPLACEHOLDER
  2
AcDbPlaceHolder
  3
ObjectDBX Classes
 90
        0
280
     0
281
     0
  0
CLASS
  1
LAYOUT
  2
AcDbLayout
  3
ObjectDBX Classes
 90
        0
280
     0
281
     0
  0
ENDSEC
  0
SECTION
  2
TABLES
  0
TABLE
  2
VPORT
  5
8
330
0
100
AcDbSymbolTable
 70
     1
  0
VPORT
  5
29
330
8
100
AcDbSymbolTableRecord
100
AcDbViewportTableRecord
  2
*Active
 70
     0
 10
0.0
 20
0.0
 11
1.0
 21
1.0
 12
0.0
 22
0.7157677165
 13
0.0
 23
0.0
 14
0.5
 24
0.5
 15
0.5
 25
0.5
 16
0.0
 26
0.0
 36
1.0
 17
0.0
 27
0.0
 37
0.0
 40
1.496307874
 41
6.043852822
 42
50.0
 43
0.0
 44
0.0
 50
0.0
 51
0.0
 71
     0
 72
   100
 73
     1
 74
     3
 75
     0
 76
     0
 77
     0
 78
     0
281
     0
 65
     1
110
0.0
120
0.0
130
0.0
111
1.0
121
0.0
131
0.0
112
0.0
122
1.0
132
0.0
 79
     0
146
0.0
  0
ENDTAB
  0
TABLE
  2
LTYPE
  5
5
330
0
100
AcDbSymbolTable
 70
     6
  0
LTYPE
  5
14
330
5
100
AcDbSymbolTableRecord
100
AcDbLinetypeTableRecord
  2
ByBlock
 70
     0
  3

 72
    65
 73
     0
 40
0.0
  0
LTYPE
  5
15
330
5
100
AcDbSymbolTableRecord
100
AcDbLinetypeTableRecord
  2
ByLayer
 70
     0
  3

 72
    65
 73
     0
 40
0.0
  0
LTYPE
  5
16
330
5
100
AcDbSymbolTableRecord
100
AcDbLinetypeTableRecord
  2
Continuous
 70
     0
  3
Solid line
 72
    65
 73
     0
 40
0.0
  0
LTYPE
  5
6E
330
5
100
AcDbSymbolTableRecord
100
AcDbLinetypeTableRecord
  2
HIDDEN
 70
     0
  3
Hidden __ __ __ __ __ __ __ __ __ __ __ __ __ __
 72
    65
 73
     2
 40
0.075
 49
0.05
 74
     0
 49
-0.025
 74
     0
  0
LTYPE
  5
6F
330
5
100
AcDbSymbolTableRecord
100
AcDbLinetypeTableRecord
  2
PHANTOM
 70
     0
  3
Phantom ______  __  __  ______  __  __  ______
 72
    65
 73
     6
 40
0.5
 49
0.25
 74
     0
 49
-0.05
 74
     0
 49
0.05
 74
     0
 49
-0.05
 74
     0
 49
0.05
 74
     0
 49
-0.05
 74
     0
  0
LTYPE
  5
70
330
5
100
AcDbSymbolTableRecord
100
AcDbLinetypeTableRecord
  2
CENTER
 70
     0
  3
Center ____ _ ____ _ ____ _ ____ _ ____ _ ____
 72
    65
 73
     4
 40
0.4
 49
0.25
 74
     0
 49
-0.05
 74
     0
 49
0.05
 74
     0
 49
-0.05
 74
     0
  0
LTYPE
  5
71
330
5
100
AcDbSymbolTableRecord
100
AcDbLinetypeTableRecord
  2
CENTERX2
 70
     0
  3
Center (2x) ________  __  ________  __  _____
 72
    65
 73
     4
 40
0.8
 49
0.5
 74
     0
 49
-0.1
 74
     0
 49
0.1
 74
     0
 49
-0.1
 74
     0
  0
LTYPE
  5
72
330
5
100
AcDbSymbolTableRecord
100
AcDbLinetypeTableRecord
  2
DOT2
 70
     0
  3
Dot (.5x) ........................................
 72
    65
 73
     2
 40
0.025
 49
0.0
 74
     0
 49
-0.025
 74
     0
  0
ENDTAB
  0
TABLE
  2
LAYER
  5
2
330
0
100
AcDbSymbolTable
 70
     1
  0
LAYER
  5
10
330
2
100
AcDbSymbolTableRecord
100
AcDbLayerTableRecord
  2
0
 70
     0
 62
     7
  6
Continuous
370
    -3
390
F
  0
ENDTAB
  0
TABLE
  2
STYLE
  5
3
330
0
100
AcDbSymbolTable
 70
     1
  0
STYLE
  5
11
330
3
100
AcDbSymbolTableRecord
100
AcDbTextStyleTableRecord
  2
Standard
 70
     0
 40
0.0
 41
1.0
 50
0.0
 71
     0
 42
0.1377952756
  3
txt
  4

  0
ENDTAB
  0
TABLE
  2
VIEW
  5
6
330
0
100
AcDbSymbolTable
 70
     0
  0
ENDTAB
  0
TABLE
  2
UCS
  5
7
330
0
100
AcDbSymbolTable
 70
     0
  0
ENDTAB
  0
TABLE
  2
APPID
  5
9
330
0
100
AcDbSymbolTable
 70
     1
  0
APPID
  5
12
330
9
100
AcDbSymbolTableRecord
100
AcDbRegAppTableRecord
  2
ACAD
 70
     0
  0
ENDTAB
  0
TABLE
  2
DIMSTYLE
  5
A
330
0
100
AcDbSymbolTable
 70
     1
100
AcDbDimStyleTable
  0
DIMSTYLE
105
27
330
A
100
AcDbSymbolTableRecord
100
AcDbDimStyleTableRecord
  2
Standard
 70
     0
178
     0
340
11
  0
ENDTAB
  0
TABLE
  2
BLOCK_RECORD
  5
1
330
0
100
AcDbSymbolTable
 70
     1
  0
BLOCK_RECORD
  5
1F
330
1
100
AcDbSymbolTableRecord
100
AcDbBlockTableRecord
  2
*Model_Space
340
22
  0
BLOCK_RECORD
  5
23
330
1
100
AcDbSymbolTableRecord
100
AcDbBlockTableRecord
  2
*Paper_Space
340
26
  0
BLOCK_RECORD
  5
1B
330
1
100
AcDbSymbolTableRecord
100
AcDbBlockTableRecord
  2
*Paper_Space0
340
1E
  0
ENDTAB
  0
ENDSEC
  0
SECTION
  2
BLOCKS
  0
BLOCK
  5
20
330
1F
100
AcDbEntity
  8
0
100
AcDbBlockBegin
  2
*Model_Space
 70
     0
 10
0.0
 20
0.0
 30
0.0
  3
*Model_Space
  1

  0
ENDBLK
  5
21
330
1F
100
AcDbEntity
  8
0
100
AcDbBlockEnd
  0
BLOCK
  5
24
330
23
100
AcDbEntity
 67
     1
  8
0
100
AcDbBlockBegin
  2
*Paper_Space
 70
     0
 10
0.0
 20
0.0
 30
0.0
  3
*Paper_Space
  1

  0
ENDBLK
  5
25
330
23
100
AcDbEntity
 67
     1
  8
0
100
AcDbBlockEnd
  0
BLOCK
  5
1C
330
1B
100
AcDbEntity
  8
0
100
AcDbBlockBegin
  2
*Paper_Space0
 70
     0
 10
0.0
 20
0.0
 30
0.0
  3
*Paper_Space0
  1

  0
SPLINE
  5
17A
330
1B
100
AcDbEntity
  8
0
  6
Continuous
 62
     7
370
    25
100
AcDbSpline
210
0.0
220
0.0
230
1.0
 70
     8
 71
     3
 72
     9
 73
     5
 74
     0
 42
0.000000001
 43
0.00000001
 40
0.0
 40
0.0
 40
0.0
 40
0.0
 40
0.4039176878617514
 40
1.0
 40
1.0
 40
1.0
 40
1.0
 10
-0.5134391545845121
 20
0.0
 30
0.0
 10
-0.5300136719859626
 20
-0.004298528129056
 30
0.0
 10
-0.571048065624905
 20
-0.0149406174909046
 30
0.0
 10
-0.6134656363605873
 20
-0.0166798247492367
 30
0.0
 10
-0.6387500000000005
 20
-0.0177165354330708
 30
0.0
  0
SPLINE
  5
17B
330
1B
100
AcDbEntity
  8
0
  6
Continuous
 62
     7
370
    25
100
AcDbSpline
210
0.0
220
0.0
230
1.0
 70
     8
 71
     3
 72
    10
 73
     6
 74
     0
 42
0.000000001
 43
0.00000001
 40
0.0
 40
0.0
 40
0.0
 40
0.0
 40
0.0825733715317838
 40
0.6254285473280278
 40
1.0
 40
1.0
 40
1.0
 40
1.0
 10
-0.4171293258031951
 20
-0.0177165354330708
 30
0.0
 10
-0.4188799030412703
 20
-0.0176879580269311
 30
0.0
 10
-0.4321391530716933
 20
-0.0174715065816666
 30
0.0
 10
-0.4533932488254082
 20
-0.013576208940243
 30
0.0
 10
-0.4722537298302429
 20
-0.0039359658336623
 30
0.0
 10
-0.4799541797069471
 20
0.0
 30
0.0
  0
SPLINE
  5
17D
330
1B
100
AcDbEntity
  8
0
  6
Continuous
 62
     7
370
    25
100
AcDbSpline
210
0.0
220
0.0
230
1.0
 70
     8
 71
     3
 72
     9
 73
     5
 74
     0
 42
0.000000001
 43
0.00000001
 40
0.0
 40
0.0
 40
0.0
 40
0.0
 40
0.4039176878617496
 40
1.0
 40
1.0
 40
1.0
 40
1.0
 10
-0.3544739030954508
 20
0.0
 30
0.0
 10
-0.3627611617961762
 20
-0.004298528129056
 30
0.0
 10
-0.3832783586156474
 20
-0.0149406174909048
 30
0.0
 10
-0.4044871439834884
 20
-0.0166798247492367
 30
0.0
 10
-0.4171293258031951
 20
-0.0177165354330708
 30
0.0
  0
SPLINE
  5
17E
330
1B
100
AcDbEntity
  8
0
  6
Continuous
 62
     7
370
    25
100
AcDbSpline
210
0.0
220
0.0
230
1.0
 70
     8
 71
     3
 72
    10
 73
     6
 74
     0
 42
0.000000001
 43
0.00000001
 40
0.0
 40
0.0
 40
0.0
 40
0.0
 40
0.3134012056540629
 40
0.7383815281627044
 40
1.0
 40
1.0
 40
1.0
 40
1.0
 10
-0.8603706741968057
 20
-0.0177165354330708
 30
0.0
 10
-0.8536634758573036
 20
-0.0173317388406524
 30
0.0
 10
-0.8378611392029944
 20
-0.0164251478932798
 30
0.0
 10
-0.8165924753666637
 20
-0.0102493424325823
 30
0.0
 10
-0.8023696222838502
 20
-0.0028278511689021
 30
0.0
 10
-0.7969502112401172
 20
0.0
 30
0.0
  0
SPLINE
  5
17F
330
1B
100
AcDbEntity
  8
0
  6
Continuous
 62
     7
370
    25
100
AcDbSpline
210
0.0
220
0.0
230
1.0
 70
     8
 71
     3
 72
    10
 73
     6
 74
     0
 42
0.000000001
 43
0.00000001
 40
0.0
 40
0.0
 40
0.0
 40
0.0
 40
0.0825733715317836
 40
0.625428547328025
 40
1.0
 40
1.0
 40
1.0
 40
1.0
 10
-0.6387500000000005
 20
-0.0177165354330708
 30
0.0
 10
-0.6422511544761509
 20
-0.0176879580269311
 30
0.0
 10
-0.6687696545369953
 20
-0.0174715065816666
 30
0.0
 10
-0.7112778460444265
 20
-0.0135762089402429
 30
0.0
 10
-0.748998808054096
 20
-0.0039359658336623
 30
0.0
 10
-0.7643997078075042
 20
0.0
 30
0.0
  0
SPLINE
  5
181
330
1B
100
AcDbEntity
  8
0
  6
Continuous
 62
     7
370
    25
100
AcDbSpline
210
0.0
220
0.0
230
1.0
 70
     8
 71
     3
 72
    10
 73
     6
 74
     0
 42
0.000000001
 43
0.00000001
 40
0.0
 40
0.0
 40
0.0
 40
0.0
 40
0.1398940097677681
 40
0.5673510830289717
 40
1.0
 40
1.0
 40
1.0
 40
1.0
 10
-0.9243433540140698
 20
0.0
 30
0.0
 10
-0.9214265703551242
 20
-0.001556812198851
 30
0.0
 10
-0.9095973264110057
 20
-0.0078705856660427
 30
0.0
 10
-0.8882716717145583
 20
-0.0155437626282264
 30
0.0
 10
-0.8697083578452726
 20
-0.0169893691344924
 30
0.0
 10
-0.8603706741968057
 20
-0.0177165354330708
 30
0.0
  0
LINE
  5
1B1
330
1B
100
AcDbEntity
  8
0
  6
Continuous
 62
     7
370
    25
100
AcDbLine
 10
-0.25
 20
0.1339291339
 30
0.0
 11
-0.0019685039
 21
0.1339291339
 31
0.0
  0
LINE
  5
1B2
330
1B
100
AcDbEntity
  8
0
  6
Continuous
 62
     7
370
    25
100
AcDbLine
 10
-0.0019685039
 20
1.0000708661
 30
0.0
 11
-0.25
 21
1.0000708661
 31
0.0
  0
LINE
  5
1B3
330
1B
100
AcDbEntity
  8
0
  6
Continuous
 62
     7
370
    25
100
AcDbLine
 10
-0.0019685039
 20
0.1339291339
 30
0.0
 11
0.0118110236
 21
0.1477086614
 31
0.0
  0
LINE
  5
1B4
330
1B
100
AcDbEntity
  8
0
  6
Continuous
 62
     7
370
    25
100
AcDbLine
 10
0.0118110236
 20
0.9862913386
 30
0.0
 11
-0.0019685039
 21
1.0000708661
 31
0.0
  0
LINE
  5
1B5
330
1B
100
AcDbEntity
  8
0
  6
Continuous
 62
     7
370
    25
100
AcDbLine
 10
-0.25
 20
1.0000708661
 30
0.0
 11
-0.2637795276
 21
0.9862913386
 31
0.0
  0
LINE
  5
1B6
330
1B
100
AcDbEntity
  8
0
  6
Continuous
 62
     7
370
    25
100
AcDbLine
 10
-0.2637795276
 20
0.1477086614
 30
0.0
 11
-0.25
 21
0.1339291339
 31
0.0
  0
LINE
  5
1B7
330
1B
100
AcDbEntity
  8
0
  6
Continuous
 62
     7
370
    25
100
AcDbLine
 10
-0.9253414513
 20
0.0
 30
0.0
 11
-0.8946555118
 21
-0.0177165354
 31
0.0
  0
LINE
  5
1B8
330
1B
100
AcDbEntity
  8
0
  6
Continuous
 62
     7
370
    25
100
AcDbLine
 10
-0.3828444882
 20
-0.0177165354
 30
0.0
 11
-0.3521585487
 21
0.0
 31
0.0
  0
LINE
  5
1B9
330
1B
100
AcDbEntity
  8
0
  6
Continuous
 62
     7
370
    25
100
AcDbLine
 10
-0.2056791339
 20
1.2268110236
 30
0.0
 11
-0.2194586614
 21
1.2405905512
 31
0.0
  0
LINE
  5
1BA
330
1B
100
AcDbEntity
  8
0
  6
Continuous
 62
     7
370
    25
100
AcDbLine
 10
-1.0580413386
 20
1.2405905512
 30
0.0
 11
-1.0718208661
 21
1.2268110236
 31
0.0
  0
LINE
  5
1BB
330
1B
100
AcDbEntity
  8
0
  6
Continuous
 62
     7
370
    25
100
AcDbLine
 10
-1.0718208661
 20
0.9787795276
 30
0.0
 11
-1.0580413386
 21
0.965
 31
0.0
  0
LINE
  5
1BC
330
1B
100
AcDbEntity
  8
0
  6
Continuous
 62
     7
370
    25
100
AcDbLine
 10
-1.0718208661
 20
1.2268110236
 30
0.0
 11
-1.0718208661
 21
0.9787795276
 31
0.0
  0
LINE
  5
1BD
330
1B
100
AcDbEntity
  8
0
  6
Continuous
 62
     7
370
    25
100
AcDbLine
 10
-0.2056791339
 20
1.0000708661
 30
0.0
 11
-0.2056791339
 21
1.2268110236
 31
0.0
  0
LINE
  5
1BE
330
1B
100
AcDbEntity
  8
0
  6
Continuous
 62
     7
370
    25
100
AcDbLine
 10
0.8660708661
 20
1.2268110236
 30
0.0
 11
0.8522913386
 21
1.2405905512
 31
0.0
  0
LINE
  5
1BF
330
1B
100
AcDbEntity
  8
0
  6
Continuous
 62
     7
370
    25
100
AcDbLine
 10
0.0137086614
 20
1.2405905512
 30
0.0
 11
-0.0000708661
 21
1.2268110236
 31
0.0
  0
LINE
  5
1C0
330
1B
100
AcDbEntity
  8
0
  6
Continuous
 62
     7
370
    25
100
AcDbLine
 10
0.0118110236
 20
0.9668976378
 30
0.0
 11
0.0137086614
 21
0.965
 31
0.0
  0
LINE
  5
1C1
330
1B
100
AcDbEntity
  8
0
  6
Continuous
 62
     7
370
    25
100
AcDbLine
 10
0.8522913386
 20
0.965
 30
0.0
 11
0.8660708661
 21
0.9787795276
 31
0.0
  0
LINE
  5
1C2
330
1B
100
AcDbEntity
  8
0
  6
Continuous
 62
     7
370
    25
100
AcDbLine
 10
-0.0000708661
 20
1.2268110236
 30
0.0
 11
-0.0000708661
 21
0.9981732283
 31
0.0
  0
LINE
  5
1C3
330
1B
100
AcDbEntity
  8
0
  6
Continuous
 62
     7
370
    25
100
AcDbLine
 10
0.8660708661
 20
0.9787795276
 30
0.0
 11
0.8660708661
 21
1.2268110236
 31
0.0
  0
LINE
  5
1C4
330
1B
100
AcDbEntity
  8
0
  6
Continuous
 62
     7
370
    25
100
AcDbLine
 10
0.663
 20
0.875
 30
0.0
 11
0.663
 21
0.965
 31
0.0
  0
LINE
  5
1C5
330
1B
100
AcDbEntity
  8
0
  6
Continuous
 62
     7
370
    25
100
AcDbLine
 10
0.203
 20
0.965
 30
0.0
 11
0.203
 21
0.875
 31
0.0
  0
LINE
  5
1C6
330
1B
100
AcDbEntity
  8
0
  6
Continuous
 62
     7
370
    25
100
AcDbLine
 10
0.02
 20
0.724480315
 30
0.0
 11
0.0118110236
 21
0.724480315
 31
0.0
  0
LINE
  5
1C7
330
1B
100
AcDbEntity
  8
0
  6
Continuous
 62
     7
370
    25
100
AcDbLine
 10
-0.2637795276
 20
0.724480315
 30
0.0
 11
-0.27
 21
0.724480315
 31
0.0
  0
LINE
  5
1C8
330
1B
100
AcDbEntity
  8
0
  6
Continuous
 62
     7
370
    25
100
AcDbLine
 10
-0.27
 20
0.409519685
 30
0.0
 11
-0.2637795276
 21
0.409519685
 31
0.0
  0
LINE
  5
1C9
330
1B
100
AcDbEntity
  8
0
  6
Continuous
 62
     7
370
    25
100
AcDbLine
 10
0.0118110236
 20
0.409519685
 30
0.0
 11
0.02
 21
0.409519685
 31
0.0
  0
LINE
  5
1CA
330
1B
100
AcDbEntity
  8
0
  6
Continuous
 62
     7
370
    25
100
AcDbLine
 10
-0.40875
 20
0.875
 30
0.0
 11
-0.40875
 21
0.965
 31
0.0
  0
LINE
  5
1CB
330
1B
100
AcDbEntity
  8
0
  6
Continuous
 62
     7
370
    25
100
AcDbLine
 10
-0.86875
 20
0.965
 30
0.0
 11
-0.86875
 21
0.875
 31
0.0
  0
LINE
  5
1CC
330
1B
100
AcDbEntity
  8
0
  6
Continuous
 62
     7
370
    25
100
AcDbLine
 10
-0.0019685039
 20
0.1339291339
 30
0.0
 11
-0.0019685039
 21
1.0000708661
 31
0.0
  0
LINE
  5
1CD
330
1B
100
AcDbEntity
  8
0
  6
Continuous
 62
     7
370
    25
100
AcDbLine
 10
-0.25
 20
0.1339291339
 30
0.0
 11
-0.25
 21
1.0000708661
 31
0.0
  0
LINE
  5
1CE
330
1B
100
AcDbEntity
  8
0
  6
Continuous
 62
     7
370
    25
100
AcDbLine
 10
0.0118110236
 20
0.1477086614
 30
0.0
 11
0.0118110236
 21
0.9862913386
 31
0.0
  0
LINE
  5
1CF
330
1B
100
AcDbEntity
  8
0
  6
Continuous
 62
     7
370
    25
100
AcDbLine
 10
-0.2637795276
 20
0.1477086614
 30
0.0
 11
-0.2637795276
 21
0.9862913386
 31
0.0
  0
LINE
  5
1D0
330
1B
100
AcDbEntity
  8
0
  6
Continuous
 62
     7
370
    25
100
AcDbLine
 10
-0.8946555118
 20
-0.0177165354
 30
0.0
 11
-0.3828444882
 21
-0.0177165354
 31
0.0
  0
LINE
  5
1D1
330
1B
100
AcDbEntity
  8
0
  6
Continuous
 62
     7
370
    25
100
AcDbLine
 10
-0.3432557677
 20
1.4492519685
 30
0.0
 11
-0.3432557677
 21
1.2405905512
 31
0.0
  0
LINE
  5
1D2
330
1B
100
AcDbEntity
  8
0
  6
Continuous
 62
     7
370
    25
100
AcDbLine
 10
-0.4910028839
 20
1.4492519685
 30
0.0
 11
-0.4910028839
 21
1.2405905512
 31
0.0
  0
LINE
  5
1D3
330
1B
100
AcDbEntity
  8
0
  6
Continuous
 62
     7
370
    25
100
AcDbLine
 10
-0.7864971161
 20
1.4492519685
 30
0.0
 11
-0.7864971161
 21
1.2405905512
 31
0.0
  0
LINE
  5
1D4
330
1B
100
AcDbEntity
  8
0
  6
Continuous
 62
     7
370
    25
100
AcDbLine
 10
-0.9342442323
 20
1.4492519685
 30
0.0
 11
-0.9342442323
 21
1.2405905512
 31
0.0
  0
LINE
  5
1D5
330
1B
100
AcDbEntity
  8
0
  6
Continuous
 62
     7
370
    25
100
AcDbLine
 10
-0.9342442323
 20
1.4492519685
 30
0.0
 11
-0.3432557677
 21
1.4492519685
 31
0.0
  0
LINE
  5
1D6
330
1B
100
AcDbEntity
  8
0
  6
Continuous
 62
     7
370
    25
100
AcDbLine
 10
-1.0718208661
 20
1.2268110236
 30
0.0
 11
-0.2056791339
 21
1.2268110236
 31
0.0
  0
LINE
  5
1D7
330
1B
100
AcDbEntity
  8
0
  6
Continuous
 62
     7
370
    25
100
AcDbLine
 10
-1.0580413386
 20
1.2405905512
 30
0.0
 11
-0.2194586614
 21
1.2405905512
 31
0.0
  0
LINE
  5
1D8
330
1B
100
AcDbEntity
  8
0
  6
Continuous
 62
     7
370
    25
100
AcDbLine
 10
-1.0580413386
 20
0.965
 30
0.0
 11
-0.2637795276
 21
0.965
 31
0.0
  0
LINE
  5
1D9
330
1B
100
AcDbEntity
  8
0
  6
Continuous
 62
     7
370
    25
100
AcDbLine
 10
-1.0718208661
 20
0.9787795276
 30
0.0
 11
-0.2637795276
 21
0.9787795276
 31
0.0
  0
LINE
  5
1DA
330
1B
100
AcDbEntity
  8
0
  6
Continuous
 62
     7
370
    25
100
AcDbLine
 10
-1.0
 20
0.875
 30
0.0
 11
-1.0
 21
0.0
 31
0.0
  0
LINE
  5
1DB
330
1B
100
AcDbEntity
  8
0
  6
Continuous
 62
     7
370
    25
100
AcDbLine
 10
-1.0
 20
0.875
 30
0.0
 11
-0.2637795276
 21
0.875
 31
0.0
  0
LINE
  5
1DC
330
1B
100
AcDbEntity
  8
0
  6
Continuous
 62
     7
370
    25
100
AcDbLine
 10
-0.27
 20
0.0
 30
0.0
 11
-0.27
 21
0.875
 31
0.0
  0
LINE
  5
1DD
330
1B
100
AcDbEntity
  8
0
  6
Continuous
 62
     7
370
    25
100
AcDbLine
 10
1.0
 20
0.875
 30
0.0
 11
1.0
 21
0.0
 31
0.0
  0
LINE
  5
1DE
330
1B
100
AcDbEntity
  8
0
  6
Continuous
 62
     7
370
    25
100
AcDbLine
 10
0.0118110236
 20
0.875
 30
0.0
 11
1.0
 21
0.875
 31
0.0
  0
LINE
  5
1DF
330
1B
100
AcDbEntity
  8
0
  6
Continuous
 62
     7
370
    25
100
AcDbLine
 10
-1.0
 20
0.0
 30
0.0
 11
1.0
 21
0.0
 31
0.0
  0
LINE
  5
1E0
330
1B
100
AcDbEntity
  8
0
  6
Continuous
 62
     7
370
    25
100
AcDbLine
 10
0.02
 20
0.875
 30
0.0
 11
0.02
 21
0.0
 31
0.0
  0
LINE
  5
1E1
330
1B
100
AcDbEntity
  8
0
  6
Continuous
 62
     7
370
    25
100
AcDbLine
 10
-0.27
 20
0.25
 30
0.0
 11
-0.2637795276
 21
0.25
 31
0.0
  0
LINE
  5
1E2
330
1B
100
AcDbEntity
  8
0
  6
Continuous
 62
     7
370
    25
100
AcDbLine
 10
0.0118110236
 20
0.25
 30
0.0
 11
0.02
 21
0.25
 31
0.0
  0
LINE
  5
1E3
330
1B
100
AcDbEntity
  8
0
  6
Continuous
 62
     7
370
    25
100
AcDbLine
 10
-0.0000708661
 20
1.2268110236
 30
0.0
 11
0.8660708661
 21
1.2268110236
 31
0.0
  0
LINE
  5
1E4
330
1B
100
AcDbEntity
  8
0
  6
Continuous
 62
     7
370
    25
100
AcDbLine
 10
0.0137086614
 20
1.2405905512
 30
0.0
 11
0.8522913386
 21
1.2405905512
 31
0.0
  0
LINE
  5
1E5
330
1B
100
AcDbEntity
  8
0
  6
Continuous
 62
     7
370
    25
100
AcDbLine
 10
0.0137086614
 20
0.965
 30
0.0
 11
0.8522913386
 21
0.965
 31
0.0
  0
LINE
  5
1E6
330
1B
100
AcDbEntity
  8
0
  6
Continuous
 62
     7
370
    25
100
AcDbLine
 10
0.0118110236
 20
0.9787795276
 30
0.0
 11
0.8660708661
 21
0.9787795276
 31
0.0
  0
LINE
  5
1E7
330
1B
100
AcDbEntity
  8
0
  6
Continuous
 62
     7
370
    25
100
AcDbLine
 10
0.7284942323
 20
1.4492519685
 30
0.0
 11
0.7284942323
 21
1.2405905512
 31
0.0
  0
LINE
  5
1E8
330
1B
100
AcDbEntity
  8
0
  6
Continuous
 62
     7
370
    25
100
AcDbLine
 10
0.5807471161
 20
1.4492519685
 30
0.0
 11
0.5807471161
 21
1.2405905512
 31
0.0
  0
LINE
  5
1E9
330
1B
100
AcDbEntity
  8
0
  6
Continuous
 62
     7
370
    25
100
AcDbLine
 10
0.1375057677
 20
1.4492519685
 30
0.0
 11
0.7284942323
 21
1.4492519685
 31
0.0
  0
LINE
  5
1EA
330
1B
100
AcDbEntity
  8
0
  6
Continuous
 62
     7
370
    25
100
AcDbLine
 10
0.2852528839
 20
1.4492519685
 30
0.0
 11
0.2852528839
 21
1.2405905512
 31
0.0
  0
LINE
  5
1EB
330
1B
100
AcDbEntity
  8
0
  6
Continuous
 62
     7
370
    25
100
AcDbLine
 10
0.1375057677
 20
1.4492519685
 30
0.0
 11
0.1375057677
 21
1.2405905512
 31
0.0
  0
LINE
  5
1EC
330
1B
100
AcDbEntity
  8
0
  6
Continuous
 62
     8
370
    25
100
AcDbLine
 10
-0.241
 20
0.1339291339
 30
0.0
 11
-0.241
 21
0.0
 31
0.0
  0
VIEWPORT
  5
2B0
330
1B
100
AcDbEntity
  8
0
100
AcDbViewport
 10
0.0
 20
0.0
 30
0.0
 40
8.4
 41
6.4
 68
     1
 69
     1
 12
0.0
 22
0.7157677165
 13
0.0
 23
0.0
 14
0.5
 24
0.5
 15
0.5
 25
0.5
 16
0.0
 26
0.0
 36
1.0
 17
0.0
 27
0.0
 37
0.0
 42
50.0
 43
0.0
 44
0.0
 45
6.8902587177
 50
0.0
 51
0.0
 72
   100
 90
   557152
  1

281
     0
 71
     1
 74
     0
110
0.0
120
0.0
130
0.0
111
1.0
121
0.0
131
0.0
112
0.0
122
1.0
132
0.0
 79
     0
146
0.0
  0
ENDBLK
  5
1D
330
1B
100
AcDbEntity
  8
0
100
AcDbBlockEnd
  0
ENDSEC
  0
SECTION
  2
ENTITIES
  0
SPLINE
  5
99
330
1F
100
AcDbEntity
  8
0
  6
Continuous
 62
     7
370
    25
100
AcDbSpline
210
0.0
220
0.0
230
1.0
 70
     8
 71
     3
 72
    10
 73
     6
 74
     0
 42
0.000000001
 43
0.00000001
 40
0.0
 40
0.0
 40
0.0
 40
0.0
 40
0.5
 40
0.5
 40
1.0
 40
1.0
 40
1.0
 40
1.0
 10
3.499999999999999
 20
0.0051400229764074
 30
0.0
 10
3.520810479121991
 20
-0.0017968033975896
 30
0.0
 10
3.542124492238198
 20
-0.0076149635740788
 30
0.0
 10
3.584849016561749
 20
-0.0155704893500894
 30
0.0
 10
3.606330844426813
 20
-0.0177165354330708
 30
0.0
 10
3.627952755905511
 20
-0.0177165354330707
 30
0.0
  0
SPLINE
  5
9B
330
1F
100
AcDbEntity
  8
0
  6
Continuous
 62
     7
370
    25
100
AcDbSpline
210
0.0
220
0.0
230
1.0
 70
     8
 71
     3
 72
    10
 73
     6
 74
     0
 42
0.000000001
 43
0.00000001
 40
0.0
 40
0.0
 40
0.0
 40
0.0
 40
0.5
 40
0.5
 40
1.0
 40
1.0
 40
1.0
 40
1.0
 10
3.500000000000001
 20
0.0051400229763872
 30
0.0
 10
3.47906862690028
 20
-0.0018371013901869
 30
0.0
 10
3.457984355777981
 20
-0.0075852186689455
 30
0.0
 10
3.415375002701252
 20
-0.0155381789057629
 30
0.0
 10
3.393846625629221
 20
-0.017716535433071
 30
0.0
 10
3.372047244094488
 20
-0.017716535433071
 30
0.0
  0
SPLINE
  5
9C
330
1F
100
AcDbEntity
  8
0
  6
Continuous
 62
     7
370
    25
100
AcDbSpline
210
0.0
220
0.0
230
1.0
 70
     8
 71
     3
 72
    12
 73
     8
 74
     0
 42
0.000000001
 43
0.00000001
 40
0.0
 40
0.0
 40
0.0
 40
0.0
 40
0.25
 40
0.25
 40
0.5
 40
0.5
 40
1.0
 40
1.0
 40
1.0
 40
1.0
 10
3.372047244094488
 20
-0.017716535433071
 30
0.0
 10
3.36118829964207
 20
-0.017716535433071
 30
0.0
 10
3.350280662338342
 20
-0.0171762909851725
 30
0.0
 10
3.328703078429797
 20
-0.0150856086077409
 30
0.0
 10
3.317986454839938
 20
-0.0135371802690734
 30
0.0
 10
3.286026920547605
 20
-0.0075650557625167
 30
0.0
 10
3.26497360571879
 20
-0.0018196828668748
 30
0.0
 10
3.244094488188974
 20
0.0051400229763977
 30
0.0
  0
SPLINE
  5
9E
330
1F
100
AcDbEntity
  8
0
  6
Continuous
 62
     7
370
    25
100
AcDbSpline
210
0.0
220
0.0
230
1.0
 70
     8
 71
     3
 72
    12
 73
     8
 74
     0
 42
0.000000001
 43
0.00000001
 40
0.0
 40
0.0
 40
0.0
 40
0.0
 40
0.25
 40
0.25
 40
0.5
 40
0.5
 40
1.0
 40
1.0
 40
1.0
 40
1.0
 10
3.372047244094488
 20
0.2500000000000001
 30
0.0
 10
3.36118829964207
 20
0.2500000000000001
 30
0.0
 10
3.350280662338342
 20
0.2494597555521016
 30
0.0
 10
3.328703078429797
 20
0.24736907317467
 30
0.0
 10
3.317986454839938
 20
0.2458206448360025
 30
0.0
 10
3.286026920547605
 20
0.2398485203294459
 30
0.0
 10
3.26497360571879
 20
0.2341031474338039
 30
0.0
 10
3.244094488188974
 20
0.2271434415905314
 30
0.0
  0
SPLINE
  5
9F
330
1F
100
AcDbEntity
  8
0
  6
Continuous
 62
     7
370
    25
100
AcDbSpline
210
0.0
220
0.0
230
1.0
 70
     8
 71
     3
 72
    10
 73
     6
 74
     0
 42
0.000000001
 43
0.00000001
 40
0.0
 40
0.0
 40
0.0
 40
0.0
 40
0.5
 40
0.5
 40
1.0
 40
1.0
 40
1.0
 40
1.0
 10
3.500000000000001
 20
0.227143441590542
 30
0.0
 10
3.47906862690028
 20
0.234120565957116
 30
0.0
 10
3.457984355777981
 20
0.2398686832358746
 30
0.0
 10
3.415375002701252
 20
0.247821643472692
 30
0.0
 10
3.393846625629221
 20
0.2500000000000001
 30
0.0
 10
3.372047244094488
 20
0.2500000000000001
 30
0.0
  0
SPLINE
  5
A1
330
1F
100
AcDbEntity
  8
0
  6
Continuous
 62
     7
370
    25
100
AcDbSpline
210
0.0
220
0.0
230
1.0
 70
     8
 71
     3
 72
    10
 73
     6
 74
     0
 42
0.000000001
 43
0.00000001
 40
0.0
 40
0.0
 40
0.0
 40
0.0
 40
0.5
 40
0.5
 40
1.0
 40
1.0
 40
1.0
 40
1.0
 10
3.627952755905511
 20
0.2499999999999999
 30
0.0
 10
3.64958751372434
 20
0.2499999999999999
 30
0.0
 10
3.671516443730367
 20
0.2477945885376063
 30
0.0
 10
3.714255632889767
 20
0.2397831921552913
 30
0.0
 10
3.735216264525661
 20
0.2340398573523082
 30
0.0
 10
3.755905511811023
 20
0.2271434415905209
 30
0.0
  0
SPLINE
  5
A3
330
1F
100
AcDbEntity
  8
0
  6
Continuous
 62
     7
370
    25
100
AcDbSpline
210
0.0
220
0.0
230
1.0
 70
     8
 71
     3
 72
    10
 73
     6
 74
     0
 42
0.000000001
 43
0.00000001
 40
0.0
 40
0.0
 40
0.0
 40
0.0
 40
0.5
 40
0.5
 40
1.0
 40
1.0
 40
1.0
 40
1.0
 10
3.627952755905511
 20
-0.0177165354330707
 30
0.0
 10
3.64958751372434
 20
-0.0177165354330707
 30
0.0
 10
3.671516443730367
 20
-0.0155111239706772
 30
0.0
 10
3.714255632889767
 20
-0.0074997275883622
 30
0.0
 10
3.735216264525661
 20
-0.0017563927853789
 30
0.0
 10
3.755905511811023
 20
0.0051400229764084
 30
0.0
  0
SPLINE
  5
A4
330
1F
100
AcDbEntity
  8
0
  6
Continuous
 62
     7
370
    25
100
AcDbSpline
210
0.0
220
0.0
230
1.0
 70
     8
 71
     3
 72
    10
 73
     6
 74
     0
 42
0.000000001
 43
0.00000001
 40
0.0
 40
0.0
 40
0.0
 40
0.0
 40
0.5
 40
0.5
 40
1.0
 40
1.0
 40
1.0
 40
1.0
 10
3.499999999999999
 20
0.2271434415905218
 30
0.0
 10
3.520810479121991
 20
0.2340802679645185
 30
0.0
 10
3.542124492238198
 20
0.2398984281410079
 30
0.0
 10
3.584849016561748
 20
0.2478539539170186
 30
0.0
 10
3.606330844426813
 20
0.2499999999999999
 30
0.0
 10
3.627952755905511
 20
0.2499999999999999
 30
0.0
  0
SPLINE
  5
A5
330
1F
100
AcDbEntity
  8
0
  6
Continuous
 62
     7
370
    25
100
AcDbSpline
210
0.0
220
0.0
230
1.0
 70
    24
 71
     3
 72
    12
 73
     8
 74
     0
 42
0.000000001
 43
0.00000001
 40
0.0
 40
0.0
 40
0.0
 40
0.0
 40
0.2499999999999993
 40
0.2499999999999993
 40
0.4999999999999987
 40
0.4999999999999987
 40
1.0
 40
1.0
 40
1.0
 40
1.0
 10
3.755905511811023
 20
0.25
 30
0.0
 10
3.755905511811023
 20
0.2499999999999999
 30
0.0
 10
3.755905511811023
 20
0.2494597555521016
 30
0.0
 10
3.755905511811023
 20
0.24736907317467
 30
0.0
 10
3.755905511811024
 20
0.2458206448360026
 30
0.0
 10
3.755905511811024
 20
0.2398485203294459
 30
0.0
 10
3.755905511811024
 20
0.2341031474338039
 30
0.0
 10
3.755905511811023
 20
0.2271434415905315
 30
0.0
  0
SPLINE
  5
A6
330
1F
100
AcDbEntity
  8
0
  6
Continuous
 62
     7
370
    25
100
AcDbSpline
210
0.0
220
0.0
230
1.0
 70
    24
 71
     3
 72
    10
 73
     6
 74
     0
 42
0.000000001
 43
0.00000001
 40
0.0
 40
0.0
 40
0.0
 40
0.0
 40
0.5
 40
0.5
 40
1.0
 40
1.0
 40
1.0
 40
1.0
 10
3.244094488188976
 20
0.0051400229763873
 30
0.0
 10
3.244094488188976
 20
-0.0018371013901868
 30
0.0
 10
3.244094488188975
 20
-0.0075852186689454
 30
0.0
 10
3.244094488188976
 20
-0.0155381789057628
 30
0.0
 10
3.244094488188976
 20
-0.0177165354330708
 30
0.0
 10
3.244094488188976
 20
-0.0177165354330708
 30
0.0
  0
SPLINE
  5
A8
330
1F
100
AcDbEntity
  8
0
  6
Continuous
 62
     7
370
    25
100
AcDbSpline
210
0.0
220
0.0
230
1.0
 70
    24
 71
     3
 72
    10
 73
     6
 74
     0
 42
0.000000001
 43
0.00000001
 40
0.0
 40
0.0
 40
0.0
 40
0.0
 40
0.5
 40
0.5
 40
1.0
 40
1.0
 40
1.0
 40
1.0
 10
3.244094488188976
 20
0.2271434415905418
 30
0.0
 10
3.244094488188976
 20
0.2341205659571159
 30
0.0
 10
3.244094488188975
 20
0.2398686832358745
 30
0.0
 10
3.244094488188976
 20
0.2478216434726919
 30
0.0
 10
3.244094488188976
 20
0.2500000000000001
 30
0.0
 10
3.244094488188976
 20
0.25
 30
0.0
  0
SPLINE
  5
A9
330
1F
100
AcDbEntity
  8
0
  6
Continuous
 62
     7
370
    25
100
AcDbSpline
210
0.0
220
0.0
230
1.0
 70
    24
 71
     3
 72
    12
 73
     8
 74
     0
 42
0.000000001
 43
0.00000001
 40
0.0
 40
0.0
 40
0.0
 40
0.0
 40
0.2499999999999993
 40
0.2499999999999993
 40
0.4999999999999987
 40
0.4999999999999987
 40
1.0
 40
1.0
 40
1.0
 40
1.0
 10
3.755905511811023
 20
-0.0177165354330708
 30
0.0
 10
3.755905511811023
 20
-0.0177165354330708
 30
0.0
 10
3.755905511811023
 20
-0.0171762909851723
 30
0.0
 10
3.755905511811023
 20
-0.0150856086077407
 30
0.0
 10
3.755905511811024
 20
-0.0135371802690734
 30
0.0
 10
3.755905511811024
 20
-0.0075650557625167
 30
0.0
 10
3.755905511811024
 20
-0.0018196828668748
 30
0.0
 10
3.755905511811023
 20
0.0051400229763976
 30
0.0
  0
SPLINE
  5
AB
330
1F
100
AcDbEntity
  8
0
  6
Continuous
 62
     7
370
    25
100
AcDbSpline
210
0.0
220
0.0
230
1.0
 70
     8
 71
     3
 72
    10
 73
     6
 74
     0
 42
0.000000001
 43
0.00000001
 40
0.0
 40
0.0
 40
0.0
 40
0.0
 40
0.5
 40
0.5
 40
1.0
 40
1.0
 40
1.0
 40
1.0
 10
-3.372047244094488
 20
0.2500000000000001
 30
0.0
 10
-3.35041248627566
 20
0.2500000000000001
 30
0.0
 10
-3.328483556269633
 20
0.2477945885376066
 30
0.0
 10
-3.28574436711023
 20
0.2397831921552915
 30
0.0
 10
-3.264783735474338
 20
0.2340398573523082
 30
0.0
 10
-3.244094488188976
 20
0.227143441590521
 30
0.0
  0
SPLINE
  5
AD
330
1F
100
AcDbEntity
  8
0
  6
Continuous
 62
     7
370
    25
100
AcDbSpline
210
0.0
220
0.0
230
1.0
 70
     8
 71
     3
 72
    10
 73
     6
 74
     0
 42
0.000000001
 43
0.00000001
 40
0.0
 40
0.0
 40
0.0
 40
0.0
 40
0.5
 40
0.5
 40
1.0
 40
1.0
 40
1.0
 40
1.0
 10
-3.372047244094488
 20
-0.017716535433071
 30
0.0
 10
-3.35041248627566
 20
-0.017716535433071
 30
0.0
 10
-3.328483556269633
 20
-0.0155111239706774
 30
0.0
 10
-3.28574436711023
 20
-0.0074997275883624
 30
0.0
 10
-3.264783735474338
 20
-0.0017563927853791
 30
0.0
 10
-3.244094488188976
 20
0.0051400229764082
 30
0.0
  0
SPLINE
  5
AE
330
1F
100
AcDbEntity
  8
0
  6
Continuous
 62
     7
370
    25
100
AcDbSpline
210
0.0
220
0.0
230
1.0
 70
     8
 71
     3
 72
    10
 73
     6
 74
     0
 42
0.000000001
 43
0.00000001
 40
0.0
 40
0.0
 40
0.0
 40
0.0
 40
0.5
 40
0.5
 40
1.0
 40
1.0
 40
1.0
 40
1.0
 10
-3.5
 20
0.0051400229764071
 30
0.0
 10
-3.47918952087801
 20
-0.0017968033975897
 30
0.0
 10
-3.457875507761802
 20
-0.0076149635740789
 30
0.0
 10
-3.415150983438251
 20
-0.0155704893500896
 30
0.0
 10
-3.393669155573186
 20
-0.017716535433071
 30
0.0
 10
-3.372047244094488
 20
-0.017716535433071
 30
0.0
  0
SPLINE
  5
B0
330
1F
100
AcDbEntity
  8
0
  6
Continuous
 62
     7
370
    25
100
AcDbSpline
210
0.0
220
0.0
230
1.0
 70
     8
 71
     3
 72
    10
 73
     6
 74
     0
 42
0.000000001
 43
0.00000001
 40
0.0
 40
0.0
 40
0.0
 40
0.0
 40
0.5
 40
0.5
 40
1.0
 40
1.0
 40
1.0
 40
1.0
 10
-3.5
 20
0.227143441590522
 30
0.0
 10
-3.47918952087801
 20
0.2340802679645188
 30
0.0
 10
-3.457875507761802
 20
0.2398984281410081
 30
0.0
 10
-3.415150983438251
 20
0.2478539539170188
 30
0.0
 10
-3.393669155573186
 20
0.2500000000000001
 30
0.0
 10
-3.372047244094488
 20
0.2500000000000001
 30
0.0
  0
SPLINE
  5
B1
330
1F
100
AcDbEntity
  8
0
  6
Continuous
 62
     7
370
    25
100
AcDbSpline
210
0.0
220
0.0
230
1.0
 70
     8
 71
     3
 72
    10
 73
     6
 74
     0
 42
0.000000001
 43
0.00000001
 40
0.0
 40
0.0
 40
0.0
 40
0.0
 40
0.5
 40
0.5
 40
1.0
 40
1.0
 40
1.0
 40
1.0
 10
-3.499999999999997
 20
0.227143441590542
 30
0.0
 10
-3.520931373099719
 20
0.234120565957116
 30
0.0
 10
-3.542015644222017
 20
0.2398686832358746
 30
0.0
 10
-3.584624997298745
 20
0.247821643472692
 30
0.0
 10
-3.606153374370777
 20
0.2500000000000001
 30
0.0
 10
-3.627952755905511
 20
0.2500000000000001
 30
0.0
  0
SPLINE
  5
B3
330
1F
100
AcDbEntity
  8
0
  6
Continuous
 62
     7
370
    25
100
AcDbSpline
210
0.0
220
0.0
230
1.0
 70
     8
 71
     3
 72
    10
 73
     6
 74
     0
 42
0.000000001
 43
0.00000001
 40
0.0
 40
0.0
 40
0.0
 40
0.0
 40
0.5
 40
0.5
 40
1.0
 40
1.0
 40
1.0
 40
1.0
 10
-3.499999999999997
 20
0.0051400229763872
 30
0.0
 10
-3.520931373099719
 20
-0.0018371013901869
 30
0.0
 10
-3.542015644222017
 20
-0.0075852186689454
 30
0.0
 10
-3.584624997298745
 20
-0.0155381789057629
 30
0.0
 10
-3.606153374370777
 20
-0.017716535433071
 30
0.0
 10
-3.627952755905511
 20
-0.017716535433071
 30
0.0
  0
SPLINE
  5
B4
330
1F
100
AcDbEntity
  8
0
  6
Continuous
 62
     7
370
    25
100
AcDbSpline
210
0.0
220
0.0
230
1.0
 70
     8
 71
     3
 72
    12
 73
     8
 74
     0
 42
0.000000001
 43
0.00000001
 40
0.0
 40
0.0
 40
0.0
 40
0.0
 40
0.2499999999999997
 40
0.2499999999999997
 40
0.4999999999999993
 40
0.4999999999999993
 40
1.0
 40
1.0
 40
1.0
 40
1.0
 10
-3.627952755905511
 20
-0.017716535433071
 30
0.0
 10
-3.638811700357929
 20
-0.017716535433071
 30
0.0
 10
-3.649719337661657
 20
-0.0171762909851725
 30
0.0
 10
-3.6712969215702
 20
-0.0150856086077409
 30
0.0
 10
-3.682013545160062
 20
-0.0135371802690734
 30
0.0
 10
-3.713973079452395
 20
-0.0075650557625167
 30
0.0
 10
-3.735026394281208
 20
-0.0018196828668748
 30
0.0
 10
-3.755905511811025
 20
0.0051400229763977
 30
0.0
  0
SPLINE
  5
B6
330
1F
100
AcDbEntity
  8
0
  6
Continuous
 62
     7
370
    25
100
AcDbSpline
210
0.0
220
0.0
230
1.0
 70
     8
 71
     3
 72
    12
 73
     8
 74
     0
 42
0.000000001
 43
0.00000001
 40
0.0
 40
0.0
 40
0.0
 40
0.0
 40
0.2500000000000004
 40
0.2500000000000004
 40
0.5000000000000008
 40
0.5000000000000008
 40
1.0
 40
1.0
 40
1.0
 40
1.0
 10
-3.627952755905511
 20
0.2500000000000001
 30
0.0
 10
-3.638811700357929
 20
0.2500000000000001
 30
0.0
 10
-3.649719337661658
 20
0.2494597555521016
 30
0.0
 10
-3.6712969215702
 20
0.24736907317467
 30
0.0
 10
-3.682013545160061
 20
0.2458206448360025
 30
0.0
 10
-3.713973079452396
 20
0.2398485203294458
 30
0.0
 10
-3.735026394281208
 20
0.2341031474338039
 30
0.0
 10
-3.755905511811025
 20
0.2271434415905315
 30
0.0
  0
SPLINE
  5
B7
330
1F
100
AcDbEntity
  8
0
  6
Continuous
 62
     7
370
    25
100
AcDbSpline
210
0.0
220
0.0
230
1.0
 70
    24
 71
     3
 72
    12
 73
     8
 74
     0
 42
0.000000001
 43
0.00000001
 40
0.0
 40
0.0
 40
0.0
 40
0.0
 40
0.2499999999999993
 40
0.2499999999999993
 40
0.4999999999999987
 40
0.4999999999999987
 40
1.0
 40
1.0
 40
1.0
 40
1.0
 10
-3.244094488188976
 20
0.2500000000000003
 30
0.0
 10
-3.244094488188976
 20
0.2500000000000003
 30
0.0
 10
-3.244094488188976
 20
0.2494597555521018
 30
0.0
 10
-3.244094488188976
 20
0.2473690731746702
 30
0.0
 10
-3.244094488188976
 20
0.2458206448360028
 30
0.0
 10
-3.244094488188976
 20
0.2398485203294462
 30
0.0
 10
-3.244094488188976
 20
0.2341031474338041
 30
0.0
 10
-3.244094488188976
 20
0.2271434415905318
 30
0.0
  0
SPLINE
  5
B8
330
1F
100
AcDbEntity
  8
0
  6
Continuous
 62
     7
370
    25
100
AcDbSpline
210
0.0
220
0.0
230
1.0
 70
    24
 71
     3
 72
    12
 73
     8
 74
     0
 42
0.000000001
 43
0.00000001
 40
0.0
 40
0.0
 40
0.0
 40
0.0
 40
0.2499999999999993
 40
0.2499999999999993
 40
0.4999999999999987
 40
0.4999999999999987
 40
1.0
 40
1.0
 40
1.0
 40
1.0
 10
-3.244094488188976
 20
-0.0177165354330711
 30
0.0
 10
-3.244094488188976
 20
-0.0177165354330711
 30
0.0
 10
-3.244094488188976
 20
-0.0171762909851728
 30
0.0
 10
-3.244094488188976
 20
-0.0150856086077412
 30
0.0
 10
-3.244094488188976
 20
-0.0135371802690736
 30
0.0
 10
-3.244094488188976
 20
-0.007565055762517
 30
0.0
 10
-3.244094488188976
 20
-0.001819682866875
 30
0.0
 10
-3.244094488188976
 20
0.0051400229763973
 30
0.0
  0
SPLINE
  5
BA
330
1F
100
AcDbEntity
  8
0
  6
Continuous
 62
     7
370
    25
100
AcDbSpline
210
0.0
220
0.0
230
1.0
 70
    24
 71
     3
 72
    10
 73
     6
 74
     0
 42
0.000000001
 43
0.00000001
 40
0.0
 40
0.0
 40
0.0
 40
0.0
 40
0.5
 40
0.5
 40
1.0
 40
1.0
 40
1.0
 40
1.0
 10
-3.755905511811023
 20
0.0051400229763873
 30
0.0
 10
-3.755905511811023
 20
-0.0018371013901868
 30
0.0
 10
-3.755905511811024
 20
-0.0075852186689454
 30
0.0
 10
-3.755905511811023
 20
-0.0155381789057628
 30
0.0
 10
-3.755905511811024
 20
-0.0177165354330708
 30
0.0
 10
-3.755905511811023
 20
-0.0177165354330708
 30
0.0
  0
SPLINE
  5
BC
330
1F
100
AcDbEntity
  8
0
  6
Continuous
 62
     7
370
    25
100
AcDbSpline
210
0.0
220
0.0
230
1.0
 70
    24
 71
     3
 72
    10
 73
     6
 74
     0
 42
0.000000001
 43
0.00000001
 40
0.0
 40
0.0
 40
0.0
 40
0.0
 40
0.5
 40
0.5
 40
1.0
 40
1.0
 40
1.0
 40
1.0
 10
-3.755905511811023
 20
0.2271434415905418
 30
0.0
 10
-3.755905511811023
 20
0.2341205659571159
 30
0.0
 10
-3.755905511811024
 20
0.2398686832358745
 30
0.0
 10
-3.755905511811023
 20
0.2478216434726919
 30
0.0
 10
-3.755905511811024
 20
0.2500000000000001
 30
0.0
 10
-3.755905511811023
 20
0.25
 30
0.0
  0
CIRCLE
  5
D4
330
1F
100
AcDbEntity
  8
0
  6
Continuous
 62
     7
370
    25
100
AcDbCircle
 10
-3.5
 20
0.675
 30
0.0
 40
0.1004999999999994
  0
CIRCLE
  5
D5
330
1F
100
AcDbEntity
  8
0
  6
Continuous
 62
     7
370
    25
100
AcDbCircle
 10
2.25
 20
0.4375
 30
0.0
 40
0.1562499999999996
  0
CIRCLE
  5
D6
330
1F
100
AcDbEntity
  8
0
  6
Continuous
 62
     7
370
    25
100
AcDbCircle
 10
0.75
 20
0.4375
 30
0.0
 40
0.1562499999999993
  0
CIRCLE
  5
D7
330
1F
100
AcDbEntity
  8
0
  6
Continuous
 62
     7
370
    25
100
AcDbCircle
 10
-2.25
 20
0.4375
 30
0.0
 40
0.1562499999999996
  0
CIRCLE
  5
D8
330
1F
100
AcDbEntity
  8
0
  6
Continuous
 62
     7
370
    25
100
AcDbCircle
 10
-0.75
 20
0.4375
 30
0.0
 40
0.1562499999999997
  0
CIRCLE
  5
DB
330
1F
100
AcDbEntity
  8
0
  6
Continuous
 62
     7
370
    25
100
AcDbCircle
 10
3.5
 20
0.675
 30
0.0
 40
0.1004999999999994
  0
CIRCLE
  5
DC
330
1F
100
AcDbEntity
  8
0
  6
Continuous
 62
     7
370
    25
100
AcDbCircle
 10
4.0
 20
0.567
 30
0.0
 40
0.1614999999999993
  0
CIRCLE
  5
DD
330
1F
100
AcDbEntity
  8
0
  6
Continuous
 62
     7
370
    25
100
AcDbCircle
 10
-4.0
 20
0.567
 30
0.0
 40
0.1614999999999993
  0
CIRCLE
  5
E1
330
1F
100
AcDbEntity
  8
0
  6
Continuous
 62
     7
370
    25
100
AcDbCircle
 10
-4.0
 20
0.567
 30
0.0
 40
0.157480314960631
  0
CIRCLE
  5
E2
330
1F
100
AcDbEntity
  8
0
  6
Continuous
 62
     7
370
    25
100
AcDbCircle
 10
4.0
 20
0.567
 30
0.0
 40
0.1574803149606296
  0
SPLINE
  5
E8
330
1F
100
AcDbEntity
  8
0
  6
Continuous
 62
     7
370
    25
100
AcDbSpline
210
0.0
220
0.0
230
1.0
 70
    24
 71
     3
 72
    12
 73
     8
 74
     0
 42
0.000000001
 43
0.00000001
 40
0.0
 40
0.0
 40
0.0
 40
0.0
 40
0.2499999999999946
 40
0.2499999999999946
 40
0.4999999999999892
 40
0.4999999999999892
 40
1.0
 40
1.0
 40
1.0
 40
1.0
 10
3.5
 20
0.6028312163512967
 30
0.0
 10
3.504883228321667
 20
0.6056505495373252
 30
0.0
 10
3.50987661940592
 20
0.6085334852239882
 30
0.0
 10
3.520220675585297
 20
0.6145056288436643
 30
0.0
 10
3.52567878870477
 20
0.6176568719224593
 30
0.0
 10
3.542047083298942
 20
0.6271071112125802
 30
0.0
 10
3.552675948539441
 20
0.6332436894203627
 30
0.0
 10
3.562500000000007
 20
0.6389156081756524
 30
0.0
  0
SPLINE
  5
EA
330
1F
100
AcDbEntity
  8
0
  6
Continuous
 62
     7
370
    25
100
AcDbSpline
210
0.0
220
0.0
230
1.0
 70
    24
 71
     3
 72
    12
 73
     8
 74
     0
 42
0.000000001
 43
0.00000001
 40
0.0
 40
0.0
 40
0.0
 40
0.0
 40
0.2500000000000003
 40
0.2500000000000003
 40
0.5000000000000007
 40
0.5000000000000007
 40
1.0
 40
1.0
 40
1.0
 40
1.0
 10
3.4375
 20
0.6389156081756479
 30
0.0
 10
3.442383228321667
 20
0.6360962749896194
 30
0.0
 10
3.447376619405919
 20
0.6332133393029564
 30
0.0
 10
3.457720675585298
 20
0.62724119568328
 30
0.0
 10
3.46317878870477
 20
0.6240899526044852
 30
0.0
 10
3.479547083298943
 20
0.6146397133143638
 30
0.0
 10
3.490175948539443
 20
0.6085031351065813
 30
0.0
 10
3.500000000000008
 20
0.6028312163512916
 30
0.0
  0
SPLINE
  5
EB
330
1F
100
AcDbEntity
  8
0
  6
Continuous
 62
     7
370
    25
100
AcDbSpline
210
0.0
220
0.0
230
1.0
 70
    24
 71
     3
 72
    12
 73
     8
 74
     0
 42
0.000000001
 43
0.00000001
 40
0.0
 40
0.0
 40
0.0
 40
0.0
 40
0.2500000000000047
 40
0.2500000000000047
 40
0.5000000000000094
 40
0.5000000000000094
 40
1.0
 40
1.0
 40
1.0
 40
1.0
 10
3.5625
 20
0.7110843918243511
 30
0.0
 10
3.557616771678334
 20
0.7139037250103796
 30
0.0
 10
3.552623380594079
 20
0.7167866606970426
 30
0.0
 10
3.542279324414701
 20
0.7227588043167187
 30
0.0
 10
3.53682121129523
 20
0.7259100473955135
 30
0.0
 10
3.520452916701058
 20
0.7353602866856346
 30
0.0
 10
3.509824051460559
 20
0.7414968648934172
 30
0.0
 10
3.499999999999993
 20
0.7471687836487064
 30
0.0
  0
SPLINE
  5
ED
330
1F
100
AcDbEntity
  8
0
  6
Continuous
 62
     7
370
    25
100
AcDbSpline
210
0.0
220
0.0
230
1.0
 70
    24
 71
     3
 72
    12
 73
     8
 74
     0
 42
0.000000001
 43
0.00000001
 40
0.0
 40
0.0
 40
0.0
 40
0.0
 40
0.2499999999999947
 40
0.2499999999999947
 40
0.4999999999999893
 40
0.4999999999999893
 40
1.0
 40
1.0
 40
1.0
 40
1.0
 10
3.499999999999999
 20
0.7471687836487027
 30
0.0
 10
3.495116771678332
 20
0.7443494504626743
 30
0.0
 10
3.490123380594079
 20
0.7414665147760113
 30
0.0
 10
3.479779324414702
 20
0.7354943711563353
 30
0.0
 10
3.47432121129523
 20
0.7323431280775407
 30
0.0
 10
3.457952916701058
 20
0.72289288878742
 30
0.0
 10
3.447324051460559
 20
0.7167563105796378
 30
0.0
 10
3.437499999999994
 20
0.7110843918243482
 30
0.0
  0
SPLINE
  5
F0
330
1F
100
AcDbEntity
  8
0
  6
Continuous
 62
     7
370
    25
100
AcDbSpline
210
0.0
220
0.0
230
1.0
 70
    24
 71
     3
 72
    14
 73
    10
 74
     0
 42
0.000000001
 43
0.00000001
 40
0.0
 40
0.0
 40
0.0
 40
0.0
 40
0.25
 40
0.25
 40
0.5
 40
0.5
 40
0.75
 40
0.75
 40
1.0
 40
1.0
 40
1.0
 40
1.0
 10
3.437499999999999
 20
0.6389156081756466
 30
0.0
 10
3.437499999999999
 20
0.6445064336941733
 30
0.0
 10
3.4375
 20
0.6503931956964228
 30
0.0
 10
3.437499999999999
 20
0.6624552055308611
 30
0.0
 10
3.437499999999999
 20
0.6686496128609662
 30
0.0
 10
3.437499999999999
 20
0.6813582555799823
 30
0.0
 10
3.437499999999999
 20
0.6875372867352747
 30
0.0
 10
3.437499999999999
 20
0.6996297873563498
 30
0.0
 10
3.437499999999999
 20
0.7055018784352076
 30
0.0
 10
3.437499999999999
 20
0.7110843918243513
 30
0.0
  0
SPLINE
  5
F2
330
1F
100
AcDbEntity
  8
0
  6
Continuous
 62
     7
370
    25
100
AcDbSpline
210
0.0
220
0.0
230
1.0
 70
    24
 71
     3
 72
    14
 73
    10
 74
     0
 42
0.000000001
 43
0.00000001
 40
0.0
 40
0.0
 40
0.0
 40
0.0
 40
0.25
 40
0.25
 40
0.5
 40
0.5
 40
0.75
 40
0.75
 40
1.0
 40
1.0
 40
1.0
 40
1.0
 10
3.5625
 20
0.6389156081756483
 30
0.0
 10
3.5625
 20
0.6445064336941769
 30
0.0
 10
3.5625
 20
0.6503931956964311
 30
0.0
 10
3.5625
 20
0.6624552055308677
 30
0.0
 10
3.5625
 20
0.6686496128611976
 30
0.0
 10
3.5625
 20
0.6813582555800026
 30
0.0
 10
3.5625
 20
0.6875372867352862
 30
0.0
 10
3.5625
 20
0.6996297873564705
 30
0.0
 10
3.5625
 20
0.7055018784352338
 30
0.0
 10
3.5625
 20
0.7110843918243505
 30
0.0
  0
CIRCLE
  5
F3
330
1F
100
AcDbEntity
  8
0
  6
Continuous
 62
     7
370
    25
100
AcDbCircle
 10
3.5
 20
0.675
 30
0.0
 40
0.0999999999999993
  0
SPLINE
  5
FA
330
1F
100
AcDbEntity
  8
0
  6
Continuous
 62
     7
370
    25
100
AcDbSpline
210
0.0
220
0.0
230
1.0
 70
    24
 71
     3
 72
    12
 73
     8
 74
     0
 42
0.000000001
 43
0.00000001
 40
0.0
 40
0.0
 40
0.0
 40
0.0
 40
0.2499999999999946
 40
0.2499999999999946
 40
0.4999999999999892
 40
0.4999999999999892
 40
1.0
 40
1.0
 40
1.0
 40
1.0
 10
-3.5
 20
0.6028312163512972
 30
0.0
 10
-3.495116771678333
 20
0.6056505495373257
 30
0.0
 10
-3.49012338059408
 20
0.6085334852239885
 30
0.0
 10
-3.479779324414702
 20
0.6145056288436649
 30
0.0
 10
-3.47432121129523
 20
0.6176568719224599
 30
0.0
 10
-3.457952916701057
 20
0.6271071112125808
 30
0.0
 10
-3.447324051460556
 20
0.6332436894203632
 30
0.0
 10
-3.437499999999993
 20
0.638915608175653
 30
0.0
  0
SPLINE
  5
FD
330
1F
100
AcDbEntity
  8
0
  6
Continuous
 62
     7
370
    25
100
AcDbSpline
210
0.0
220
0.0
230
1.0
 70
    24
 71
     3
 72
    12
 73
     8
 74
     0
 42
0.000000001
 43
0.00000001
 40
0.0
 40
0.0
 40
0.0
 40
0.0
 40
0.2500000000000003
 40
0.2500000000000003
 40
0.5000000000000007
 40
0.5000000000000007
 40
1.0
 40
1.0
 40
1.0
 40
1.0
 10
-3.5625
 20
0.6389156081756484
 30
0.0
 10
-3.557616771678334
 20
0.63609627498962
 30
0.0
 10
-3.552623380594081
 20
0.633213339302957
 30
0.0
 10
-3.542279324414702
 20
0.6272411956832806
 30
0.0
 10
-3.53682121129523
 20
0.6240899526044857
 30
0.0
 10
-3.520452916701056
 20
0.6146397133143644
 30
0.0
 10
-3.509824051460557
 20
0.6085031351065819
 30
0.0
 10
-3.499999999999992
 20
0.6028312163512921
 30
0.0
  0
SPLINE
  5
FF
330
1F
100
AcDbEntity
  8
0
  6
Continuous
 62
     7
370
    25
100
AcDbSpline
210
0.0
220
0.0
230
1.0
 70
    24
 71
     3
 72
    12
 73
     8
 74
     0
 42
0.000000001
 43
0.00000001
 40
0.0
 40
0.0
 40
0.0
 40
0.0
 40
0.2500000000000047
 40
0.2500000000000047
 40
0.5000000000000094
 40
0.5000000000000094
 40
1.0
 40
1.0
 40
1.0
 40
1.0
 10
-3.4375
 20
0.7110843918243517
 30
0.0
 10
-3.442383228321666
 20
0.7139037250103804
 30
0.0
 10
-3.447376619405919
 20
0.7167866606970431
 30
0.0
 10
-3.457720675585298
 20
0.7227588043167192
 30
0.0
 10
-3.46317878870477
 20
0.7259100473955141
 30
0.0
 10
-3.479547083298943
 20
0.7353602866856351
 30
0.0
 10
-3.490175948539442
 20
0.7414968648934173
 30
0.0
 10
-3.500000000000006
 20
0.747168783648707
 30
0.0
  0
SPLINE
  5
101
330
1F
100
AcDbEntity
  8
0
  6
Continuous
 62
     7
370
    25
100
AcDbSpline
210
0.0
220
0.0
230
1.0
 70
    24
 71
     3
 72
    12
 73
     8
 74
     0
 42
0.000000001
 43
0.00000001
 40
0.0
 40
0.0
 40
0.0
 40
0.0
 40
0.2499999999999947
 40
0.2499999999999947
 40
0.4999999999999893
 40
0.4999999999999893
 40
1.0
 40
1.0
 40
1.0
 40
1.0
 10
-3.500000000000001
 20
0.7471687836487032
 30
0.0
 10
-3.504883228321667
 20
0.7443494504626748
 30
0.0
 10
-3.50987661940592
 20
0.7414665147760121
 30
0.0
 10
-3.520220675585297
 20
0.7354943711563359
 30
0.0
 10
-3.52567878870477
 20
0.7323431280775412
 30
0.0
 10
-3.542047083298943
 20
0.7228928887874208
 30
0.0
 10
-3.552675948539441
 20
0.7167563105796384
 30
0.0
 10
-3.562500000000005
 20
0.7110843918243488
 30
0.0
  0
SPLINE
  5
103
330
1F
100
AcDbEntity
  8
0
  6
Continuous
 62
     7
370
    25
100
AcDbSpline
210
0.0
220
0.0
230
1.0
 70
    24
 71
     3
 72
    14
 73
    10
 74
     0
 42
0.000000001
 43
0.00000001
 40
0.0
 40
0.0
 40
0.0
 40
0.0
 40
0.25
 40
0.25
 40
0.5
 40
0.5
 40
0.75
 40
0.75
 40
1.0
 40
1.0
 40
1.0
 40
1.0
 10
-3.5625
 20
0.6389156081756472
 30
0.0
 10
-3.5625
 20
0.6445064336941739
 30
0.0
 10
-3.562500000000002
 20
0.6503931956964234
 30
0.0
 10
-3.5625
 20
0.6624552055308618
 30
0.0
 10
-3.562500000000001
 20
0.6686496128609666
 30
0.0
 10
-3.5625
 20
0.6813582555799829
 30
0.0
 10
-3.562500000000001
 20
0.6875372867352751
 30
0.0
 10
-3.5625
 20
0.6996297873563501
 30
0.0
 10
-3.562500000000001
 20
0.7055018784352082
 30
0.0
 10
-3.5625
 20
0.7110843918243519
 30
0.0
  0
SPLINE
  5
104
330
1F
100
AcDbEntity
  8
0
  6
Continuous
 62
     7
370
    25
100
AcDbSpline
210
0.0
220
0.0
230
1.0
 70
    24
 71
     3
 72
    14
 73
    10
 74
     0
 42
0.000000001
 43
0.00000001
 40
0.0
 40
0.0
 40
0.0
 40
0.0
 40
0.25
 40
0.25
 40
0.5
 40
0.5
 40
0.75
 40
0.75
 40
1.0
 40
1.0
 40
1.0
 40
1.0
 10
-3.4375
 20
0.6389156081756489
 30
0.0
 10
-3.4375
 20
0.6445064336941773
 30
0.0
 10
-3.437499999999999
 20
0.6503931956964316
 30
0.0
 10
-3.437499999999999
 20
0.6624552055308681
 30
0.0
 10
-3.437500000000001
 20
0.6686496128611982
 30
0.0
 10
-3.437500000000001
 20
0.6813582555800032
 30
0.0
 10
-3.437500000000001
 20
0.6875372867352868
 30
0.0
 10
-3.437500000000001
 20
0.6996297873564711
 30
0.0
 10
-3.437500000000001
 20
0.7055018784352343
 30
0.0
 10
-3.4375
 20
0.711084391824351
 30
0.0
  0
CIRCLE
  5
106
330
1F
100
AcDbEntity
  8
0
  6
Continuous
 62
     7
370
    25
100
AcDbCircle
 10
-3.5
 20
0.675
 30
0.0
 40
0.1000000000000003
  0
LINE
  5
10D
330
1F
100
AcDbEntity
  8
0
  6
Continuous
 62
     7
370
    25
100
AcDbLine
 10
3.0669291339
 20
0.9787795276
 30
0.0
 11
3.0807086614
 21
0.965
 31
0.0
  0
LINE
  5
10E
330
1F
100
AcDbEntity
  8
0
  6
Continuous
 62
     7
370
    25
100
AcDbLine
 10
3.9192913386
 20
0.965
 30
0.0
 11
3.9330708661
 21
0.9787795276
 31
0.0
  0
LINE
  5
10F
330
1F
100
AcDbEntity
  8
0
  6
Continuous
 62
     7
370
    25
100
AcDbLine
 10
3.9330708661
 20
1.2268110236
 30
0.0
 11
3.9192913386
 21
1.2405905512
 31
0.0
  0
LINE
  5
110
330
1F
100
AcDbEntity
  8
0
  6
Continuous
 62
     7
370
    25
100
AcDbLine
 10
3.0807086614
 20
1.2405905512
 30
0.0
 11
3.0669291339
 21
1.2268110236
 31
0.0
  0
LINE
  5
111
330
1F
100
AcDbEntity
  8
0
  6
Continuous
 62
     7
370
    25
100
AcDbLine
 10
3.0669291339
 20
1.2268110236
 30
0.0
 11
3.0669291339
 21
0.9787795276
 31
0.0
  0
LINE
  5
112
330
1F
100
AcDbEntity
  8
0
  6
Continuous
 62
     7
370
    25
100
AcDbLine
 10
3.9330708661
 20
0.9787795276
 30
0.0
 11
3.9330708661
 21
1.2268110236
 31
0.0
  0
LINE
  5
113
330
1F
100
AcDbEntity
  8
0
  6
Continuous
 62
     7
370
    25
100
AcDbLine
 10
-3.27
 20
0.875
 30
0.0
 11
-3.27
 21
0.965
 31
0.0
  0
LINE
  5
114
330
1F
100
AcDbEntity
  8
0
  6
Continuous
 62
     7
370
    25
100
AcDbLine
 10
-3.73
 20
0.965
 30
0.0
 11
-3.73
 21
0.875
 31
0.0
  0
LINE
  5
115
330
1F
100
AcDbEntity
  8
0
  6
Continuous
 62
     7
370
    25
100
AcDbLine
 10
-3.9330708661
 20
0.9787795276
 30
0.0
 11
-3.9192913386
 21
0.965
 31
0.0
  0
LINE
  5
116
330
1F
100
AcDbEntity
  8
0
  6
Continuous
 62
     7
370
    25
100
AcDbLine
 10
-3.0807086614
 20
0.965
 30
0.0
 11
-3.0669291339
 21
0.9787795276
 31
0.0
  0
LINE
  5
117
330
1F
100
AcDbEntity
  8
0
  6
Continuous
 62
     7
370
    25
100
AcDbLine
 10
-3.9330708661
 20
1.2268110236
 30
0.0
 11
-3.9330708661
 21
0.9787795276
 31
0.0
  0
LINE
  5
118
330
1F
100
AcDbEntity
  8
0
  6
Continuous
 62
     7
370
    25
100
AcDbLine
 10
-3.0669291339
 20
0.9787795276
 30
0.0
 11
-3.0669291339
 21
1.2268110236
 31
0.0
  0
LINE
  5
119
330
1F
100
AcDbEntity
  8
0
  6
Continuous
 62
     7
370
    25
100
AcDbLine
 10
-3.0669291339
 20
1.2268110236
 30
0.0
 11
-3.0807086614
 21
1.2405905512
 31
0.0
  0
LINE
  5
11A
330
1F
100
AcDbEntity
  8
0
  6
Continuous
 62
     7
370
    25
100
AcDbLine
 10
-3.9192913386
 20
1.2405905512
 30
0.0
 11
-3.9330708661
 21
1.2268110236
 31
0.0
  0
LINE
  5
11B
330
1F
100
AcDbEntity
  8
0
  6
Continuous
 62
     7
370
    25
100
AcDbLine
 10
3.73
 20
0.875
 30
0.0
 11
3.73
 21
0.965
 31
0.0
  0
LINE
  5
11C
330
1F
100
AcDbEntity
  8
0
  6
Continuous
 62
     7
370
    25
100
AcDbLine
 10
3.27
 20
0.965
 30
0.0
 11
3.27
 21
0.875
 31
0.0
  0
LINE
  5
11D
330
1F
100
AcDbEntity
  8
0
  6
Continuous
 62
     7
370
    25
100
AcDbLine
 10
-3.761
 20
0.2224942285
 30
0.0
 11
-3.7546727594
 21
0.2269709253
 31
0.0
  0
LINE
  5
11E
330
1F
100
AcDbEntity
  8
0
  6
Continuous
 62
     7
370
    25
100
AcDbLine
 10
-3.761
 20
0.2058499272
 30
0.0
 11
-3.7559055118
 21
0.20927349
 31
0.0
  0
LINE
  5
11F
330
1F
100
AcDbEntity
  8
0
  6
Continuous
 62
     7
370
    25
100
AcDbLine
 10
3.7559055118
 20
0.20927349
 30
0.0
 11
3.761
 21
0.2058499272
 31
0.0
  0
LINE
  5
120
330
1F
100
AcDbEntity
  8
0
  6
Continuous
 62
     7
370
    25
100
AcDbLine
 10
3.7541987787
 20
0.2273134
 30
0.0
 11
3.761
 21
0.2224942285
 31
0.0
  0
LINE
  5
121
330
1F
100
AcDbEntity
  8
0
  6
Continuous
 62
     7
370
    25
100
AcDbLine
 10
3.2440944882
 20
-0.0177165354
 30
0.0
 11
3.7559055118
 21
-0.0177165354
 31
0.0
  0
LINE
  5
122
330
1F
100
AcDbEntity
  8
0
  6
Continuous
 62
     7
370
    25
100
AcDbLine
 10
3.2440944882
 20
0.005140023
 30
0.0
 11
3.2440944882
 21
0.2271434416
 31
0.0
  0
LINE
  5
123
330
1F
100
AcDbEntity
  8
0
  6
Continuous
 62
     7
370
    25
100
AcDbLine
 10
3.5
 20
0.005140023
 30
0.0
 11
3.5
 21
0.2271434416
 31
0.0
  0
LINE
  5
124
330
1F
100
AcDbEntity
  8
0
  6
Continuous
 62
     7
370
    25
100
AcDbLine
 10
3.7559055118
 20
0.005140023
 30
0.0
 11
3.7559055118
 21
0.2271434416
 31
0.0
  0
LINE
  5
125
330
1F
100
AcDbEntity
  8
0
  6
Continuous
 62
     7
370
    25
100
AcDbLine
 10
-3.2440944882
 20
0.005140023
 30
0.0
 11
-3.2440944882
 21
0.2271434416
 31
0.0
  0
LINE
  5
126
330
1F
100
AcDbEntity
  8
0
  6
Continuous
 62
     7
370
    25
100
AcDbLine
 10
-3.5
 20
0.005140023
 30
0.0
 11
-3.5
 21
0.2271434416
 31
0.0
  0
LINE
  5
127
330
1F
100
AcDbEntity
  8
0
  6
Continuous
 62
     7
370
    25
100
AcDbLine
 10
-3.7559055118
 20
-0.0177165354
 30
0.0
 11
-3.2440944882
 21
-0.0177165354
 31
0.0
  0
LINE
  5
128
330
1F
100
AcDbEntity
  8
0
  6
Continuous
 62
     7
370
    25
100
AcDbLine
 10
-3.7559055118
 20
0.005140023
 30
0.0
 11
-3.7559055118
 21
0.2271434416
 31
0.0
  0
LINE
  5
129
330
1F
100
AcDbEntity
  8
0
  6
Continuous
 62
     7
370
    25
100
AcDbLine
 10
-3.2440944882
 20
1.4492519685
 30
0.0
 11
-3.2440944882
 21
1.2405905512
 31
0.0
  0
LINE
  5
12A
330
1F
100
AcDbEntity
  8
0
  6
Continuous
 62
     7
370
    25
100
AcDbLine
 10
-3.5
 20
1.4492519685
 30
0.0
 11
-3.5
 21
1.2405905512
 31
0.0
  0
LINE
  5
12B
330
1F
100
AcDbEntity
  8
0
  6
Continuous
 62
     7
370
    25
100
AcDbLine
 10
-3.7559055118
 20
1.4492519685
 30
0.0
 11
-3.2440944882
 21
1.4492519685
 31
0.0
  0
LINE
  5
12C
330
1F
100
AcDbEntity
  8
0
  6
Continuous
 62
     7
370
    25
100
AcDbLine
 10
-3.7559055118
 20
1.4492519685
 30
0.0
 11
-3.7559055118
 21
1.2405905512
 31
0.0
  0
LINE
  5
12D
330
1F
100
AcDbEntity
  8
0
  6
Continuous
 62
     7
370
    25
100
AcDbLine
 10
3.5
 20
1.4492519685
 30
0.0
 11
3.5
 21
1.2405905512
 31
0.0
  0
LINE
  5
12E
330
1F
100
AcDbEntity
  8
0
  6
Continuous
 62
     7
370
    25
100
AcDbLine
 10
3.2440944882
 20
1.4492519685
 30
0.0
 11
3.2440944882
 21
1.2405905512
 31
0.0
  0
LINE
  5
12F
330
1F
100
AcDbEntity
  8
0
  6
Continuous
 62
     7
370
    25
100
AcDbLine
 10
3.2440944882
 20
1.4492519685
 30
0.0
 11
3.7559055118
 21
1.4492519685
 31
0.0
  0
LINE
  5
130
330
1F
100
AcDbEntity
  8
0
  6
Continuous
 62
     7
370
    25
100
AcDbLine
 10
3.7559055118
 20
1.4492519685
 30
0.0
 11
3.7559055118
 21
1.2405905512
 31
0.0
  0
LINE
  5
131
330
1F
100
AcDbEntity
  8
0
  6
Continuous
 62
     7
370
    25
100
AcDbLine
 10
3.0807086614
 20
0.965
 30
0.0
 11
3.9192913386
 21
0.965
 31
0.0
  0
LINE
  5
132
330
1F
100
AcDbEntity
  8
0
  6
Continuous
 62
     7
370
    25
100
AcDbLine
 10
3.0669291339
 20
0.9787795276
 30
0.0
 11
3.9330708661
 21
0.9787795276
 31
0.0
  0
LINE
  5
133
330
1F
100
AcDbEntity
  8
0
  6
Continuous
 62
     7
370
    25
100
AcDbLine
 10
3.0669291339
 20
1.2268110236
 30
0.0
 11
3.9330708661
 21
1.2268110236
 31
0.0
  0
LINE
  5
134
330
1F
100
AcDbEntity
  8
0
  6
Continuous
 62
     7
370
    25
100
AcDbLine
 10
3.0807086614
 20
1.2405905512
 30
0.0
 11
3.9192913386
 21
1.2405905512
 31
0.0
  0
LINE
  5
135
330
1F
100
AcDbEntity
  8
0
  6
Continuous
 62
     7
370
    25
100
AcDbLine
 10
3.239
 20
0.25
 30
0.0
 11
3.239
 21
0.0
 31
0.0
  0
LINE
  5
136
330
1F
100
AcDbEntity
  8
0
  6
Continuous
 62
     7
370
    25
100
AcDbLine
 10
-3.239
 20
0.25
 30
0.0
 11
-3.239
 21
0.0
 31
0.0
  0
LINE
  5
137
330
1F
100
AcDbEntity
  8
0
  6
Continuous
 62
     7
370
    25
100
AcDbLine
 10
-3.239
 20
0.25
 30
0.0
 11
-3.761
 21
0.25
 31
0.0
  0
LINE
  5
138
330
1F
100
AcDbEntity
  8
0
  6
Continuous
 62
     7
370
    25
100
AcDbLine
 10
-4.25
 20
0.875
 30
0.0
 11
-4.25
 21
0.0
 31
0.0
  0
LINE
  5
139
330
1F
100
AcDbEntity
  8
0
  6
Continuous
 62
     7
370
    25
100
AcDbLine
 10
-4.25
 20
0.875
 30
0.0
 11
4.25
 21
0.875
 31
0.0
  0
LINE
  5
13A
330
1F
100
AcDbEntity
  8
0
  6
Continuous
 62
     7
370
    25
100
AcDbLine
 10
3.761
 20
0.25
 30
0.0
 11
3.761
 21
0.0
 31
0.0
  0
LINE
  5
13B
330
1F
100
AcDbEntity
  8
0
  6
Continuous
 62
     7
370
    25
100
AcDbLine
 10
3.239
 20
0.25
 30
0.0
 11
3.761
 21
0.25
 31
0.0
  0
LINE
  5
13C
330
1F
100
AcDbEntity
  8
0
  6
Continuous
 62
     7
370
    25
100
AcDbLine
 10
-4.25
 20
0.0
 30
0.0
 11
-3.7559055118
 21
0.0
 31
0.0
  0
LINE
  5
13D
330
1F
100
AcDbEntity
  8
0
  6
Continuous
 62
     7
370
    25
100
AcDbLine
 10
-3.761
 20
0.25
 30
0.0
 11
-3.761
 21
0.0
 31
0.0
  0
LINE
  5
13E
330
1F
100
AcDbEntity
  8
0
  6
Continuous
 62
     7
370
    25
100
AcDbLine
 10
-3.239
 20
0.0
 30
0.0
 11
3.239
 21
0.0
 31
0.0
  0
LINE
  5
13F
330
1F
100
AcDbEntity
  8
0
  6
Continuous
 62
     7
370
    25
100
AcDbLine
 10
3.7559055118
 20
0.0
 30
0.0
 11
4.25
 21
0.0
 31
0.0
  0
LINE
  5
140
330
1F
100
AcDbEntity
  8
0
  6
Continuous
 62
     7
370
    25
100
AcDbLine
 10
4.25
 20
0.875
 30
0.0
 11
4.25
 21
0.0
 31
0.0
  0
LINE
  5
141
330
1F
100
AcDbEntity
  8
0
  6
Continuous
 62
     7
370
    25
100
AcDbLine
 10
-3.9192913386
 20
0.965
 30
0.0
 11
-3.0807086614
 21
0.965
 31
0.0
  0
LINE
  5
142
330
1F
100
AcDbEntity
  8
0
  6
Continuous
 62
     7
370
    25
100
AcDbLine
 10
-3.9330708661
 20
0.9787795276
 30
0.0
 11
-3.0669291339
 21
0.9787795276
 31
0.0
  0
LINE
  5
143
330
1F
100
AcDbEntity
  8
0
  6
Continuous
 62
     7
370
    25
100
AcDbLine
 10
-3.9330708661
 20
1.2268110236
 30
0.0
 11
-3.0669291339
 21
1.2268110236
 31
0.0
  0
LINE
  5
144
330
1F
100
AcDbEntity
  8
0
  6
Continuous
 62
     7
370
    25
100
AcDbLine
 10
-3.9192913386
 20
1.2405905512
 30
0.0
 11
-3.0807086614
 21
1.2405905512
 31
0.0
  0
ARC
  5
145
330
1F
100
AcDbEntity
  8
0
  6
Continuous
 62
     7
370
    25
100
AcDbCircle
 10
-4.0
 20
0.567
 30
0.0
 40
0.4192913385827209
100
AcDbArc
 50
49.9134789975
 51
71.6626621836
  0
ARC
  5
146
330
1F
100
AcDbEntity
  8
0
  6
Continuous
 62
     7
370
    25
100
AcDbCircle
 10
-4.0
 20
0.567
 30
0.0
 40
0.4192913385826773
100
AcDbArc
 50
80.8149035028
 51
233.3986256834
  0
ARC
  5
147
330
1F
100
AcDbEntity
  8
0
  6
Continuous
 62
     7
370
    25
100
AcDbCircle
 10
-4.0
 20
0.567
 30
0.0
 40
0.3212338842258735
100
AcDbArc
 50
73.4966168602
 51
106.5033831398
  0
ARC
  5
148
330
1F
100
AcDbEntity
  8
0
  6
Continuous
 62
     7
370
    25
100
AcDbCircle
 10
-4.0
 20
0.567
 30
0.0
 40
0.3212338842260092
100
AcDbArc
 50
141.1005483345
 51
218.8994516655
  0
ARC
  5
149
330
1F
100
AcDbEntity
  8
0
  6
Continuous
 62
     7
370
    25
100
AcDbCircle
 10
-4.0
 20
0.567
 30
0.0
 40
0.4330708661417355
100
AcDbArc
 50
51.4311551143
 51
66.7829662715
  0
ARC
  5
14A
330
1F
100
AcDbEntity
  8
0
  6
Continuous
 62
     7
370
    25
100
AcDbCircle
 10
-4.0
 20
0.567
 30
0.0
 40
0.433070866141732
100
AcDbArc
 50
81.109564933
 51
234.7410514612
  0
ARC
  5
14B
330
1F
100
AcDbEntity
  8
0
  6
Continuous
 62
     7
370
    25
100
AcDbCircle
 10
-4.0
 20
0.567
 30
0.0
 40
0.2693172968763344
100
AcDbArc
 50
158.1672021289
 51
201.8327978711
  0
ARC
  5
14C
330
1F
100
AcDbEntity
  8
0
  6
Continuous
 62
     7
370
    25
100
AcDbCircle
 10
4.0
 20
0.567
 30
0.0
 40
0.4330708661417323
100
AcDbArc
 50
305.2589485388
 51
98.890435067
  0
ARC
  5
14D
330
1F
100
AcDbEntity
  8
0
  6
Continuous
 62
     7
370
    25
100
AcDbCircle
 10
4.0
 20
0.567
 30
0.0
 40
0.4330708661417182
100
AcDbArc
 50
113.2170337284
 51
128.5688448857
  0
ARC
  5
14E
330
1F
100
AcDbEntity
  8
0
  6
Continuous
 62
     7
370
    25
100
AcDbCircle
 10
4.0
 20
0.567
 30
0.0
 40
0.4192913385826774
100
AcDbArc
 50
306.6013743166
 51
99.1850964972
  0
ARC
  5
14F
330
1F
100
AcDbEntity
  8
0
  6
Continuous
 62
     7
370
    25
100
AcDbCircle
 10
4.0
 20
0.567
 30
0.0
 40
0.4192913385826919
100
AcDbArc
 50
108.3373378164
 51
130.0865210025
  0
ARC
  5
150
330
1F
100
AcDbEntity
  8
0
  6
Continuous
 62
     7
370
    25
100
AcDbCircle
 10
4.0
 20
0.567
 30
0.0
 40
0.32123388422601
100
AcDbArc
 50
321.1005483345
 51
38.8994516655
  0
ARC
  5
151
330
1F
100
AcDbEntity
  8
0
  6
Continuous
 62
     7
370
    25
100
AcDbCircle
 10
4.0
 20
0.567
 30
0.0
 40
0.3212338842259314
100
AcDbArc
 50
73.4966168602
 51
106.5033831398
  0
ARC
  5
152
330
1F
100
AcDbEntity
  8
0
  6
Continuous
 62
     7
370
    25
100
AcDbCircle
 10
4.0
 20
0.567
 30
0.0
 40
0.2693172968763689
100
AcDbArc
 50
338.1672021289
 51
21.8327978711
  0
ARC
  5
153
330
1F
100
AcDbEntity
  8
0
  6
Continuous
 62
     7
370
    25
100
AcDbCircle
 10
3.5
 20
0.675
 30
0.0
 40
0.0721687836487029
100
AcDbArc
 50
30.0
 51
330.0
  0
ARC
  5
154
330
1F
100
AcDbEntity
  8
0
  6
Continuous
 62
     7
370
    25
100
AcDbCircle
 10
3.5
 20
0.675
 30
0.0
 40
0.0625000000000008
100
AcDbArc
 50
60.0
 51
0.0
  0
ARC
  5
155
330
1F
100
AcDbEntity
  8
0
  6
Continuous
 62
     7
370
    25
100
AcDbCircle
 10
-3.5
 20
0.675
 30
0.0
 40
0.0721687836487044
100
AcDbArc
 50
30.0
 51
330.0
  0
ARC
  5
156
330
1F
100
AcDbEntity
  8
0
  6
Continuous
 62
     7
370
    25
100
AcDbCircle
 10
-3.5
 20
0.675
 30
0.0
 40
0.0625000000000001
100
AcDbArc
 50
60.0
 51
0.0
  0
CIRCLE
  5
213
330
23
100
AcDbEntity
 67
     1
  8
0
  6
Continuous
 62
     7
370
    25
100
AcDbCircle
 10
3.5
 20
-0.63875
 30
0.0
 40
0.433070866141732
  0
CIRCLE
  5
214
330
23
100
AcDbEntity
 67
     1
  8
0
  6
Continuous
 62
     7
370
    25
100
AcDbCircle
 10
3.5
 20
-0.63875
 30
0.0
 40
0.4192913385826773
  0
CIRCLE
  5
215
330
23
100
AcDbEntity
 67
     1
  8
0
  6
Continuous
 62
     7
370
    25
100
AcDbCircle
 10
3.5
 20
-0.63875
 30
0.0
 40
0.3212338842260096
  0
LWPOLYLINE
  5
216
330
23
100
AcDbEntity
 67
     1
  8
0
  6
Continuous
 62
     7
370
    25
100
AcDbPolyline
 90
        3
 70
   128
 43
0.0
 10
3.7693172969
 20
-0.63875
 10
3.7661610123
 20
-0.5976389074
 10
3.7568067504
 20
-0.5576198615
  0
LWPOLYLINE
  5
21C
330
23
100
AcDbEntity
 67
     1
  8
0
  6
Continuous
 62
     7
370
    25
100
AcDbPolyline
 90
        3
 70
   128
 43
0.0
 10
3.7568067504
 20
-0.7198801385
 10
3.7661610123
 20
-0.6798610926
 10
3.7693172969
 20
-0.63875
  0
CIRCLE
  5
21D
330
23
100
AcDbEntity
 67
     1
  8
0
  6
Continuous
 62
     7
370
    25
100
AcDbCircle
 10
2.25
 20
0.25
 30
0.0
 40
0.1562499999999988
  0
CIRCLE
  5
21E
330
23
100
AcDbEntity
 67
     1
  8
0
  6
Continuous
 62
     7
370
    25
100
AcDbCircle
 10
-2.25
 20
0.25
 30
0.0
 40
0.1562499999999988
  0
CIRCLE
  5
21F
330
23
100
AcDbEntity
 67
     1
  8
0
  6
Continuous
 62
     7
370
    25
100
AcDbCircle
 10
-0.75
 20
0.25
 30
0.0
 40
0.1659999999999996
  0
CIRCLE
  5
220
330
23
100
AcDbEntity
 67
     1
  8
0
  6
Continuous
 62
     7
370
    25
100
AcDbCircle
 10
0.75
 20
0.25
 30
0.0
 40
0.1659999999999997
  0
CIRCLE
  5
22F
330
23
100
AcDbEntity
 67
     1
  8
0
  6
Continuous
 62
     7
370
    25
100
AcDbCircle
 10
3.5
 20
0.433
 30
0.0
 40
0.4192913385826778
  0
CIRCLE
  5
230
330
23
100
AcDbEntity
 67
     1
  8
0
  6
Continuous
 62
     7
370
    25
100
AcDbCircle
 10
3.5
 20
0.433
 30
0.0
 40
0.3212338842260096
  0
CIRCLE
  5
231
330
23
100
AcDbEntity
 67
     1
  8
0
  6
Continuous
 62
     7
370
    25
100
AcDbCircle
 10
3.5
 20
0.433
 30
0.0
 40
0.433070866141732
  0
CIRCLE
  5
239
330
23
100
AcDbEntity
 67
     1
  8
0
  6
Continuous
 62
     7
370
    25
100
AcDbCircle
 10
-3.5
 20
0.433
 30
0.0
 40
0.4330708661417315
  0
CIRCLE
  5
23A
330
23
100
AcDbEntity
 67
     1
  8
0
  6
Continuous
 62
     7
370
    25
100
AcDbCircle
 10
-3.5
 20
0.433
 30
0.0
 40
0.4192913385826773
  0
CIRCLE
  5
23B
330
23
100
AcDbEntity
 67
     1
  8
0
  6
Continuous
 62
     7
370
    25
100
AcDbCircle
 10
-3.5
 20
0.433
 30
0.0
 40
0.3212338842260101
  0
CIRCLE
  5
243
330
23
100
AcDbEntity
 67
     1
  8
0
  6
Continuous
 62
     7
370
    25
100
AcDbCircle
 10
-3.5
 20
-0.63875
 30
0.0
 40
0.4192913385826773
  0
CIRCLE
  5
244
330
23
100
AcDbEntity
 67
     1
  8
0
  6
Continuous
 62
     7
370
    25
100
AcDbCircle
 10
-3.5
 20
-0.63875
 30
0.0
 40
0.3212338842260101
  0
CIRCLE
  5
245
330
23
100
AcDbEntity
 67
     1
  8
0
  6
Continuous
 62
     7
370
    25
100
AcDbCircle
 10
-3.5
 20
-0.63875
 30
0.0
 40
0.4330708661417324
  0
LINE
  5
259
330
23
100
AcDbEntity
 67
     1
  8
0
  6
Continuous
 62
     7
370
    25
100
AcDbLine
 10
-3.5669291339
 20
-0.2108821861
 30
0.0
 11
-3.5669291339
 21
-0.0019685039
 31
0.0
  0
LINE
  5
25A
330
23
100
AcDbEntity
 67
     1
  8
0
  6
Continuous
 62
     7
370
    25
100
AcDbLine
 10
-4.4330708661
 20
-0.0019685039
 30
0.0
 11
-4.4330708661
 21
-0.25
 31
0.0
  0
LINE
  5
25B
330
23
100
AcDbEntity
 67
     1
  8
0
  6
Continuous
 62
     7
370
    25
100
AcDbLine
 10
-3.5669291339
 20
-0.0019685039
 30
0.0
 11
-3.5754498792
 21
0.0065522414
 31
0.0
  0
LINE
  5
25C
330
23
100
AcDbEntity
 67
     1
  8
0
  6
Continuous
 62
     7
370
    25
100
AcDbLine
 10
-4.4192913386
 20
0.0118110236
 30
0.0
 11
-4.4330708661
 21
-0.0019685039
 31
0.0
  0
LINE
  5
25D
330
23
100
AcDbEntity
 67
     1
  8
0
  6
Continuous
 62
     7
370
    25
100
AcDbLine
 10
-4.4330708661
 20
-0.25
 30
0.0
 11
-4.4192913386
 21
-0.2637795276
 31
0.0
  0
LINE
  5
25E
330
23
100
AcDbEntity
 67
     1
  8
0
  6
Continuous
 62
     7
370
    25
100
AcDbLine
 10
4.4192913386
 20
-0.2637795276
 30
0.0
 11
4.4330708661
 21
-0.25
 31
0.0
  0
LINE
  5
25F
330
23
100
AcDbEntity
 67
     1
  8
0
  6
Continuous
 62
     7
370
    25
100
AcDbLine
 10
4.4330708661
 20
-0.0019685039
 30
0.0
 11
4.4192913386
 21
0.0118110236
 31
0.0
  0
LINE
  5
260
330
23
100
AcDbEntity
 67
     1
  8
0
  6
Continuous
 62
     7
370
    25
100
AcDbLine
 10
3.5754498792
 20
0.0065522414
 30
0.0
 11
3.5669291339
 21
-0.0019685039
 31
0.0
  0
LINE
  5
261
330
23
100
AcDbEntity
 67
     1
  8
0
  6
Continuous
 62
     7
370
    25
100
AcDbLine
 10
4.4330708661
 20
-0.25
 30
0.0
 11
4.4330708661
 21
-0.0019685039
 31
0.0
  0
LINE
  5
262
330
23
100
AcDbEntity
 67
     1
  8
0
  6
Continuous
 62
     7
370
    25
100
AcDbLine
 10
3.5669291339
 20
-0.0019685039
 30
0.0
 11
3.5669291339
 21
-0.2108821861
 31
0.0
  0
LINE
  5
263
330
23
100
AcDbEntity
 67
     1
  8
0
  6
Continuous
 62
     7
370
    25
100
AcDbLine
 10
-4.157480315
 20
0.02
 30
0.0
 11
-4.157480315
 21
0.0118110236
 31
0.0
  0
LINE
  5
264
330
23
100
AcDbEntity
 67
     1
  8
0
  6
Continuous
 62
     7
370
    25
100
AcDbLine
 10
-4.157480315
 20
-0.2637795276
 30
0.0
 11
-4.157480315
 21
-0.27
 31
0.0
  0
LINE
  5
265
330
23
100
AcDbEntity
 67
     1
  8
0
  6
Continuous
 62
     7
370
    25
100
AcDbLine
 10
-3.842519685
 20
-0.27
 30
0.0
 11
-3.842519685
 21
-0.2637795276
 31
0.0
  0
LINE
  5
266
330
23
100
AcDbEntity
 67
     1
  8
0
  6
Continuous
 62
     7
370
    25
100
AcDbLine
 10
-3.842519685
 20
0.0118110236
 30
0.0
 11
-3.842519685
 21
0.02
 31
0.0
  0
LINE
  5
267
330
23
100
AcDbEntity
 67
     1
  8
0
  6
Continuous
 62
     7
370
    25
100
AcDbLine
 10
3.842519685
 20
0.02
 30
0.0
 11
3.842519685
 21
0.0118110236
 31
0.0
  0
LINE
  5
268
330
23
100
AcDbEntity
 67
     1
  8
0
  6
Continuous
 62
     7
370
    25
100
AcDbLine
 10
3.842519685
 20
-0.2637795276
 30
0.0
 11
3.842519685
 21
-0.27
 31
0.0
  0
LINE
  5
269
330
23
100
AcDbEntity
 67
     1
  8
0
  6
Continuous
 62
     7
370
    25
100
AcDbLine
 10
4.157480315
 20
-0.27
 30
0.0
 11
4.157480315
 21
-0.2637795276
 31
0.0
  0
LINE
  5
26A
330
23
100
AcDbEntity
 67
     1
  8
0
  6
Continuous
 62
     7
370
    25
100
AcDbLine
 10
4.157480315
 20
0.0118110236
 30
0.0
 11
4.157480315
 21
0.02
 31
0.0
  0
LINE
  5
26B
330
23
100
AcDbEntity
 67
     1
  8
0
  6
Continuous
 62
     7
370
    25
100
AcDbLine
 10
-3.5669291339
 20
-0.0019685039
 30
0.0
 11
-4.4330708661
 21
-0.0019685039
 31
0.0
  0
LINE
  5
26C
330
23
100
AcDbEntity
 67
     1
  8
0
  6
Continuous
 62
     7
370
    25
100
AcDbLine
 10
-3.6908502361
 20
-0.25
 30
0.0
 11
-4.4330708661
 21
-0.25
 31
0.0
  0
LINE
  5
26D
330
23
100
AcDbEntity
 67
     1
  8
0
  6
Continuous
 62
     7
370
    25
100
AcDbLine
 10
-3.6007483066
 20
0.0118110236
 30
0.0
 11
-4.4192913386
 21
0.0118110236
 31
0.0
  0
LINE
  5
26E
330
23
100
AcDbEntity
 67
     1
  8
0
  6
Continuous
 62
     7
370
    25
100
AcDbLine
 10
-3.7166737638
 20
-0.2637795276
 30
0.0
 11
-4.4192913386
 21
-0.2637795276
 31
0.0
  0
LINE
  5
26F
330
23
100
AcDbEntity
 67
     1
  8
0
  6
Continuous
 62
     7
370
    25
100
AcDbLine
 10
4.4330708661
 20
-0.25
 30
0.0
 11
3.6908502361
 21
-0.25
 31
0.0
  0
LINE
  5
270
330
23
100
AcDbEntity
 67
     1
  8
0
  6
Continuous
 62
     7
370
    25
100
AcDbLine
 10
4.4192913386
 20
-0.2637795276
 30
0.0
 11
3.7166737638
 21
-0.2637795276
 31
0.0
  0
LINE
  5
271
330
23
100
AcDbEntity
 67
     1
  8
0
  6
Continuous
 62
     7
370
    25
100
AcDbLine
 10
4.4192913386
 20
0.0118110236
 30
0.0
 11
3.6007483066
 21
0.0118110236
 31
0.0
  0
LINE
  5
272
330
23
100
AcDbEntity
 67
     1
  8
0
  6
Continuous
 62
     7
370
    25
100
AcDbLine
 10
4.4330708661
 20
-0.0019685039
 30
0.0
 11
3.5669291339
 21
-0.0019685039
 31
0.0
  0
LINE
  5
273
330
23
100
AcDbEntity
 67
     1
  8
0
  6
Continuous
 62
     7
370
    25
100
AcDbLine
 10
-3.2440944882
 20
-0.7864971161
 30
0.0
 11
-3.2440944882
 21
-0.4910028839
 31
0.0
  0
LINE
  5
274
330
23
100
AcDbEntity
 67
     1
  8
0
  6
Continuous
 62
     7
370
    25
100
AcDbLine
 10
-3.5
 20
-0.9342442323
 30
0.0
 11
-3.2440944882
 21
-0.7864971161
 31
0.0
  0
LINE
  5
275
330
23
100
AcDbEntity
 67
     1
  8
0
  6
Continuous
 62
     7
370
    25
100
AcDbLine
 10
-3.5
 20
-0.3432557677
 30
0.0
 11
-3.7559055118
 21
-0.4910028839
 31
0.0
  0
LINE
  5
276
330
23
100
AcDbEntity
 67
     1
  8
0
  6
Continuous
 62
     7
370
    25
100
AcDbLine
 10
-3.2440944882
 20
-0.4910028839
 30
0.0
 11
-3.5
 21
-0.3432557677
 31
0.0
  0
LINE
  5
277
330
23
100
AcDbEntity
 67
     1
  8
0
  6
Continuous
 62
     7
370
    25
100
AcDbLine
 10
-3.7559055118
 20
-0.7864971161
 30
0.0
 11
-3.5
 21
-0.9342442323
 31
0.0
  0
LINE
  5
278
330
23
100
AcDbEntity
 67
     1
  8
0
  6
Continuous
 62
     7
370
    25
100
AcDbLine
 10
-3.7559055118
 20
-0.4910028839
 30
0.0
 11
-3.7559055118
 21
-0.7864971161
 31
0.0
  0
LINE
  5
279
330
23
100
AcDbEntity
 67
     1
  8
0
  6
Continuous
 62
     7
370
    25
100
AcDbLine
 10
3.2440944882
 20
-0.4910028839
 30
0.0
 11
3.2440944882
 21
-0.7864971161
 31
0.0
  0
LINE
  5
27A
330
23
100
AcDbEntity
 67
     1
  8
0
  6
Continuous
 62
     7
370
    25
100
AcDbLine
 10
3.7559055118
 20
-0.7864971161
 30
0.0
 11
3.7559055118
 21
-0.4910028839
 31
0.0
  0
LINE
  5
27B
330
23
100
AcDbEntity
 67
     1
  8
0
  6
Continuous
 62
     7
370
    25
100
AcDbLine
 10
3.2440944882
 20
-0.7864971161
 30
0.0
 11
3.5
 21
-0.9342442323
 31
0.0
  0
LINE
  5
27C
330
23
100
AcDbEntity
 67
     1
  8
0
  6
Continuous
 62
     7
370
    25
100
AcDbLine
 10
3.5
 20
-0.9342442323
 30
0.0
 11
3.7559055118
 21
-0.7864971161
 31
0.0
  0
LINE
  5
27D
330
23
100
AcDbEntity
 67
     1
  8
0
  6
Continuous
 62
     7
370
    25
100
AcDbLine
 10
3.5
 20
-0.3432557677
 30
0.0
 11
3.2440944882
 21
-0.4910028839
 31
0.0
  0
LINE
  5
27E
330
23
100
AcDbEntity
 67
     1
  8
0
  6
Continuous
 62
     7
370
    25
100
AcDbLine
 10
3.7559055118
 20
-0.4910028839
 30
0.0
 11
3.5
 21
-0.3432557677
 31
0.0
  0
LINE
  5
27F
330
23
100
AcDbEntity
 67
     1
  8
0
  6
Continuous
 62
     7
370
    25
100
AcDbLine
 10
-3.6303126053
 20
0.02
 30
0.0
 11
-4.25
 21
0.02
 31
0.0
  0
LINE
  5
280
330
23
100
AcDbEntity
 67
     1
  8
0
  6
Continuous
 62
     7
370
    25
100
AcDbLine
 10
-4.25
 20
1.0
 30
0.0
 11
-4.25
 21
0.02
 31
0.0
  0
LINE
  5
281
330
23
100
AcDbEntity
 67
     1
  8
0
  6
Continuous
 62
     7
370
    25
100
AcDbLine
 10
4.25
 20
1.0
 30
0.0
 11
-4.25
 21
1.0
 31
0.0
  0
LINE
  5
282
330
23
100
AcDbEntity
 67
     1
  8
0
  6
Continuous
 62
     7
370
    25
100
AcDbLine
 10
4.25
 20
0.02
 30
0.0
 11
4.25
 21
1.0
 31
0.0
  0
LINE
  5
283
330
23
100
AcDbEntity
 67
     1
  8
0
  6
Continuous
 62
     7
370
    25
100
AcDbLine
 10
4.25
 20
0.02
 30
0.0
 11
3.6303126053
 21
0.02
 31
0.0
  0
LINE
  5
284
330
23
100
AcDbEntity
 67
     1
  8
0
  6
Continuous
 62
     7
370
    25
100
AcDbLine
 10
3.7270986847
 20
-0.27
 30
0.0
 11
4.25
 21
-0.27
 31
0.0
  0
LINE
  5
285
330
23
100
AcDbEntity
 67
     1
  8
0
  6
Continuous
 62
     7
370
    25
100
AcDbLine
 10
4.25
 20
-1.0
 30
0.0
 11
4.25
 21
-0.27
 31
0.0
  0
LINE
  5
286
330
23
100
AcDbEntity
 67
     1
  8
0
  6
Continuous
 62
     7
370
    25
100
AcDbLine
 10
-4.25
 20
-1.0
 30
0.0
 11
-3.7388489326
 21
-1.0
 31
0.0
  0
LINE
  5
287
330
23
100
AcDbEntity
 67
     1
  8
0
  6
Continuous
 62
     7
370
    25
100
AcDbLine
 10
-3.2611510674
 20
-1.0
 30
0.0
 11
3.2611510674
 21
-1.0
 31
0.0
  0
LINE
  5
288
330
23
100
AcDbEntity
 67
     1
  8
0
  6
Continuous
 62
     7
370
    25
100
AcDbLine
 10
3.7388489326
 20
-1.0
 30
0.0
 11
4.25
 21
-1.0
 31
0.0
  0
LINE
  5
289
330
23
100
AcDbEntity
 67
     1
  8
0
  6
Continuous
 62
     7
370
    25
100
AcDbLine
 10
-4.25
 20
-0.27
 30
0.0
 11
-4.25
 21
-1.0
 31
0.0
  0
LINE
  5
28A
330
23
100
AcDbEntity
 67
     1
  8
0
  6
Continuous
 62
     7
370
    25
100
AcDbLine
 10
-4.25
 20
-0.27
 30
0.0
 11
-3.7270986847
 21
-0.27
 31
0.0
  0
LINE
  5
28B
330
23
100
AcDbEntity
 67
     1
  8
0
  6
Continuous
 62
     7
370
    25
100
AcDbLine
 10
3.2440944882
 20
0.5807471161
 30
0.0
 11
3.2440944882
 21
0.2852528839
 31
0.0
  0
LINE
  5
28C
330
23
100
AcDbEntity
 67
     1
  8
0
  6
Continuous
 62
     7
370
    25
100
AcDbLine
 10
3.5
 20
0.7284942323
 30
0.0
 11
3.2440944882
 21
0.5807471161
 31
0.0
  0
LINE
  5
28D
330
23
100
AcDbEntity
 67
     1
  8
0
  6
Continuous
 62
     7
370
    25
100
AcDbLine
 10
3.2440944882
 20
0.2852528839
 30
0.0
 11
3.5
 21
0.1375057677
 31
0.0
  0
LINE
  5
28E
330
23
100
AcDbEntity
 67
     1
  8
0
  6
Continuous
 62
     7
370
    25
100
AcDbLine
 10
3.7559055118
 20
0.5807471161
 30
0.0
 11
3.5
 21
0.7284942323
 31
0.0
  0
LINE
  5
28F
330
23
100
AcDbEntity
 67
     1
  8
0
  6
Continuous
 62
     7
370
    25
100
AcDbLine
 10
3.7559055118
 20
0.2852528839
 30
0.0
 11
3.7559055118
 21
0.5807471161
 31
0.0
  0
LINE
  5
290
330
23
100
AcDbEntity
 67
     1
  8
0
  6
Continuous
 62
     7
370
    25
100
AcDbLine
 10
3.5
 20
0.1375057677
 30
0.0
 11
3.7559055118
 21
0.2852528839
 31
0.0
  0
LINE
  5
291
330
23
100
AcDbEntity
 67
     1
  8
0
  6
Continuous
 62
     7
370
    25
100
AcDbLine
 10
-3.5
 20
0.1375057677
 30
0.0
 11
-3.2440944882
 21
0.2852528839
 31
0.0
  0
LINE
  5
292
330
23
100
AcDbEntity
 67
     1
  8
0
  6
Continuous
 62
     7
370
    25
100
AcDbLine
 10
-3.7559055118
 20
0.2852528839
 30
0.0
 11
-3.5
 21
0.1375057677
 31
0.0
  0
LINE
  5
293
330
23
100
AcDbEntity
 67
     1
  8
0
  6
Continuous
 62
     7
370
    25
100
AcDbLine
 10
-3.7559055118
 20
0.5807471161
 30
0.0
 11
-3.7559055118
 21
0.2852528839
 31
0.0
  0
LINE
  5
294
330
23
100
AcDbEntity
 67
     1
  8
0
  6
Continuous
 62
     7
370
    25
100
AcDbLine
 10
-3.5
 20
0.7284942323
 30
0.0
 11
-3.7559055118
 21
0.5807471161
 31
0.0
  0
LINE
  5
295
330
23
100
AcDbEntity
 67
     1
  8
0
  6
Continuous
 62
     7
370
    25
100
AcDbLine
 10
-3.2440944882
 20
0.5807471161
 30
0.0
 11
-3.5
 21
0.7284942323
 31
0.0
  0
LINE
  5
296
330
23
100
AcDbEntity
 67
     1
  8
0
  6
Continuous
 62
     7
370
    25
100
AcDbLine
 10
-3.2440944882
 20
0.2852528839
 30
0.0
 11
-3.2440944882
 21
0.5807471161
 31
0.0
  0
ARC
  5
297
330
23
100
AcDbEntity
 67
     1
  8
0
  6
Continuous
 62
     7
370
    25
100
AcDbCircle
 10
3.5
 20
-0.63875
 30
0.0
 40
0.2693172968763365
100
AcDbArc
 50
42.4676821715
 51
77.5323178284
  0
ARC
  5
298
330
23
100
AcDbEntity
 67
     1
  8
0
  6
Continuous
 62
     7
370
    25
100
AcDbCircle
 10
3.5
 20
-0.63875
 30
0.0
 40
0.2693172968763306
100
AcDbArc
 50
102.4676821716
 51
137.5323178285
  0
ARC
  5
299
330
23
100
AcDbEntity
 67
     1
  8
0
  6
Continuous
 62
     7
370
    25
100
AcDbCircle
 10
3.5
 20
-0.63875
 30
0.0
 40
0.2693172968763295
100
AcDbArc
 50
162.4676821715
 51
197.5323178285
  0
ARC
  5
29A
330
23
100
AcDbEntity
 67
     1
  8
0
  6
Continuous
 62
     7
370
    25
100
AcDbCircle
 10
3.5
 20
-0.63875
 30
0.0
 40
0.2693172968763251
100
AcDbArc
 50
222.4676821715
 51
257.5323178285
  0
ARC
  5
29B
330
23
100
AcDbEntity
 67
     1
  8
0
  6
Continuous
 62
     7
370
    25
100
AcDbCircle
 10
3.5
 20
-0.63875
 30
0.0
 40
0.2693172968763113
100
AcDbArc
 50
282.4676821715
 51
317.5323178285
  0
ARC
  5
29C
330
23
100
AcDbEntity
 67
     1
  8
0
  6
Continuous
 62
     7
370
    25
100
AcDbCircle
 10
-3.5
 20
-0.125
 30
0.0
 40
0.1449999999999993
100
AcDbArc
 50
319.1684012477
 51
63.5161501143
  0
ARC
  5
29D
330
23
100
AcDbEntity
 67
     1
  8
0
  6
Continuous
 62
     7
370
    25
100
AcDbCircle
 10
3.5
 20
-0.125
 30
0.0
 40
0.1449999999999996
100
AcDbArc
 50
116.4838498857
 51
220.8315987523
  0
ARC
  5
29E
330
23
100
AcDbEntity
 67
     1
  8
0
  6
Continuous
 62
     7
370
    25
100
AcDbCircle
 10
3.5
 20
0.433
 30
0.0
 40
0.2693172968762761
100
AcDbArc
 50
341.8420098337
 51
18.1579901663
  0
ARC
  5
29F
330
23
100
AcDbEntity
 67
     1
  8
0
  6
Continuous
 62
     7
370
    25
100
AcDbCircle
 10
3.5
 20
0.433
 30
0.0
 40
0.2693172968763392
100
AcDbArc
 50
41.8420098337
 51
78.1579901663
  0
ARC
  5
2A0
330
23
100
AcDbEntity
 67
     1
  8
0
  6
Continuous
 62
     7
370
    25
100
AcDbCircle
 10
3.5
 20
0.433
 30
0.0
 40
0.2693172968763319
100
AcDbArc
 50
101.8420098337
 51
138.1579901663
  0
ARC
  5
2A1
330
23
100
AcDbEntity
 67
     1
  8
0
  6
Continuous
 62
     7
370
    25
100
AcDbCircle
 10
3.5
 20
0.433
 30
0.0
 40
0.2693172968763377
100
AcDbArc
 50
161.8420098337
 51
198.1579901663
  0
ARC
  5
2A2
330
23
100
AcDbEntity
 67
     1
  8
0
  6
Continuous
 62
     7
370
    25
100
AcDbCircle
 10
3.5
 20
0.433
 30
0.0
 40
0.2693172968763316
100
AcDbArc
 50
221.8420098337
 51
258.1579901663
  0
ARC
  5
2A3
330
23
100
AcDbEntity
 67
     1
  8
0
  6
Continuous
 62
     7
370
    25
100
AcDbCircle
 10
3.5
 20
0.433
 30
0.0
 40
0.2693172968763213
100
AcDbArc
 50
281.8420098337
 51
318.1579901663
  0
ARC
  5
2A4
330
23
100
AcDbEntity
 67
     1
  8
0
  6
Continuous
 62
     7
370
    25
100
AcDbCircle
 10
-3.5
 20
0.433
 30
0.0
 40
0.2693172968762623
100
AcDbArc
 50
341.8420098337
 51
18.1579901663
  0
ARC
  5
2A5
330
23
100
AcDbEntity
 67
     1
  8
0
  6
Continuous
 62
     7
370
    25
100
AcDbCircle
 10
-3.5
 20
0.433
 30
0.0
 40
0.2693172968763277
100
AcDbArc
 50
41.8420098337
 51
78.1579901663
  0
ARC
  5
2A6
330
23
100
AcDbEntity
 67
     1
  8
0
  6
Continuous
 62
     7
370
    25
100
AcDbCircle
 10
-3.5
 20
0.433
 30
0.0
 40
0.2693172968763284
100
AcDbArc
 50
101.8420098337
 51
138.1579901663
  0
ARC
  5
2A7
330
23
100
AcDbEntity
 67
     1
  8
0
  6
Continuous
 62
     7
370
    25
100
AcDbCircle
 10
-3.5
 20
0.433
 30
0.0
 40
0.2693172968763378
100
AcDbArc
 50
161.8420098337
 51
198.1579901663
  0
ARC
  5
2A8
330
23
100
AcDbEntity
 67
     1
  8
0
  6
Continuous
 62
     7
370
    25
100
AcDbCircle
 10
-3.5
 20
0.433
 30
0.0
 40
0.2693172968763306
100
AcDbArc
 50
221.8420098337
 51
258.1579901663
  0
ARC
  5
2A9
330
23
100
AcDbEntity
 67
     1
  8
0
  6
Continuous
 62
     7
370
    25
100
AcDbCircle
 10
-3.5
 20
0.433
 30
0.0
 40
0.2693172968763108
100
AcDbArc
 50
281.8420098337
 51
318.1579901663
  0
ARC
  5
2AA
330
23
100
AcDbEntity
 67
     1
  8
0
  6
Continuous
 62
     7
370
    25
100
AcDbCircle
 10
-3.5
 20
-0.63875
 30
0.0
 40
0.2693172968762618
100
AcDbArc
 50
341.8420098337
 51
18.1579901663
  0
ARC
  5
2AB
330
23
100
AcDbEntity
 67
     1
  8
0
  6
Continuous
 62
     7
370
    25
100
AcDbCircle
 10
-3.5
 20
-0.63875
 30
0.0
 40
0.2693172968763218
100
AcDbArc
 50
42.4676821715
 51
78.1579901663
  0
ARC
  5
2AC
330
23
100
AcDbEntity
 67
     1
  8
0
  6
Continuous
 62
     7
370
    25
100
AcDbCircle
 10
-3.5
 20
-0.63875
 30
0.0
 40
0.2693172968763313
100
AcDbArc
 50
101.8420098337
 51
137.5323178285
  0
ARC
  5
2AD
330
23
100
AcDbEntity
 67
     1
  8
0
  6
Continuous
 62
     7
370
    25
100
AcDbCircle
 10
-3.5
 20
-0.63875
 30
0.0
 40
0.2693172968763279
100
AcDbArc
 50
162.4676821715
 51
197.5323178285
  0
ARC
  5
2AE
330
23
100
AcDbEntity
 67
     1
  8
0
  6
Continuous
 62
     7
370
    25
100
AcDbCircle
 10
-3.5
 20
-0.63875
 30
0.0
 40
0.2693172968763201
100
AcDbArc
 50
222.4676821715
 51
257.5323178285
  0
ARC
  5
2AF
330
23
100
AcDbEntity
 67
     1
  8
0
  6
Continuous
 62
     7
370
    25
100
AcDbCircle
 10
-3.5
 20
-0.63875
 30
0.0
 40
0.2693172968763116
100
AcDbArc
 50
282.4676821715
 51
318.1579901663
  0
VIEWPORT
  5
2B2
330
23
100
AcDbEntity
 67
     1
  8
0
100
AcDbViewport
 10
0.0
 20
0.0
 30
0.0
 40
8.4
 41
6.4
 68
     1
 69
     1
 12
0.0
 22
0.7157677165
 13
0.0
 23
0.0
 14
0.5
 24
0.5
 15
0.5
 25
0.5
 16
0.0
 26
0.0
 36
1.0
 17
0.0
 27
0.0
 37
0.0
 42
50.0
 43
0.0
 44
0.0
 45
6.8902587177
 50
0.0
 51
0.0
 72
   100
 90
   557152
  1

281
     0
 71
     1
 74
     0
110
0.0
120
0.0
130
0.0
111
1.0
121
0.0
131
0.0
112
0.0
122
1.0
132
0.0
 79
     0
146
0.0
  0
ENDSEC
  0
SECTION
  2
OBJECTS
  0
DICTIONARY
  5
C
330
0
100
AcDbDictionary
281
     1
  3
ACAD_GROUP
350
D
  3
ACAD_LAYOUT
350
1A
  3
ACAD_MLINESTYLE
350
17
  3
ACAD_PLOTSETTINGS
350
19
  3
ACAD_PLOTSTYLENAME
350
E
  3
ACAD_SCALELIST
350
47
  0
DICTIONARY
  5
D
102
{ACAD_REACTORS
330
C
102
}
330
C
100
AcDbDictionary
281
     1
  0
DICTIONARY
  5
1A
102
{ACAD_REACTORS
330
C
102
}
330
C
100
AcDbDictionary
281
     1
  3
_Right
350
1E
  3
_Top
350
26
  3
Model
350
22
  0
DICTIONARY
  5
17
102
{ACAD_REACTORS
330
C
102
}
330
C
100
AcDbDictionary
281
     1
  3
Standard
350
18
  0
DICTIONARY
  5
19
102
{ACAD_REACTORS
330
C
102
}
330
C
100
AcDbDictionary
281
     1
  0
ACDBDICTIONARYWDFLT
  5
E
102
{ACAD_REACTORS
330
C
102
}
330
C
100
AcDbDictionary
281
     1
  3
Normal
350
F
100
AcDbDictionaryWithDefault
340
F
  0
DICTIONARY
  5
47
102
{ACAD_REACTORS
330
C
102
}
330
C
100
AcDbDictionary
281
     1
  3
A0
350
48
  3
A1
350
49
  3
A2
350
4A
  3
A3
350
4B
  3
A4
350
4C
  3
A5
350
4D
  3
A6
350
4E
  3
A7
350
4F
  3
A8
350
50
  3
A9
350
51
  3
B0
350
52
  3
B1
350
53
  3
B2
350
54
  3
B3
350
55
  3
B4
350
56
  3
B5
350
57
  3
B6
350
58
  3
B7
350
59
  3
B8
350
5A
  3
B9
350
5B
  3
C0
350
5C
  3
C1
350
5D
  3
C2
350
5E
  3
C3
350
5F
  3
C4
350
60
  3
C5
350
61
  3
C6
350
62
  3
C7
350
63
  3
C8
350
64
  3
C9
350
65
  3
D0
350
66
  3
D1
350
67
  3
D2
350
68
  0
LAYOUT
  5
1E
102
{ACAD_REACTORS
330
1A
102
}
330
1A
100
AcDbPlotSettings
  1

  2
none_device
  4
Letter_(8.50_x_11.00_Inches)
  6

 40
6.35
 41
6.35
 42
6.35001
 43
6.35001
 44
215.9
 45
279.4
 46
0.0
 47
0.0
 48
0.0
 49
0.0
140
0.0
141
0.0
142
1.0
143
0.1973162804
 70
   688
 72
     0
 73
     1
 74
     1
  7

 75
     0
147
5.0680055298
148
27.22425
149
0.45
100
AcDbLayout
  1
_Right
 70
     1
 71
     1
 10
-1.1211500139
 20
-0.0670456055
 11
1.0493290701
 21
1.6101427776
 12
0.0
 22
0.0
 32
0.0
 14
1.0000000000E+20
 24
1.0000000000E+20
 34
1.0000000000E+20
 15
-1.0000000000E+20
 25
-1.0000000000E+20
 35
-1.0000000000E+20
146
0.0
 13
0.0
 23
0.0
 33
0.0
 16
1.0
 26
0.0
 36
0.0
 17
0.0
 27
1.0
 37
0.0
 76
     0
330
1B
331
2B0
  0
LAYOUT
  5
26
102
{ACAD_REACTORS
330
1A
102
}
330
1A
100
AcDbPlotSettings
  1

  2
none_device
  4
ANSI_A_(11.00_x_8.50_Inches)
  6

 40
6.35
 41
19.05
 42
6.35000508
 43
19.05000254
 44
279.4
 45
215.9
 46
133.34999746
 47
66.5694686101
 48
0.0
 49
0.0
140
0.0
141
0.0
142
1.228268206
143
1.0
 70
  1696
 72
     0
 73
     0
 74
     1
  7

 75
     0
147
1.1842806169
148
112.6
149
0.45
100
AcDbLayout
  1
_Top
 70
     1
 71
     2
 10
0.0
 20
0.0
 11
0.0
 21
0.0
 12
0.0
 22
0.0
 32
0.0
 14
-4.4330708661
 24
-0.0177165354
 34
0.0
 15
4.4330708661
 25
1.4492519685
 35
0.0
146
0.0
 13
0.0
 23
0.0
 33
0.0
 16
1.0
 26
0.0
 36
0.0
 17
0.0
 27
1.0
 37
0.0
 76
     0
330
23
331
2B2
  0
LAYOUT
  5
22
102
{ACAD_REACTORS
330
1A
102
}
330
1A
100
AcDbPlotSettings
  1

  2
none_device
  4
Letter_(8.50_x_11.00_Inches)
  6

 40
6.35
 41
6.35
 42
6.35000508
 43
6.35000508
 44
215.9
 45
279.4
 46
0.0
 47
0.0
 48
0.0
 49
0.0
140
0.0
141
0.0
142
1.0
143
1.0
 70
  1712
 72
     0
 73
     0
 74
     0
  7

 75
     0
147
1.0
148
0.0
149
0.0
100
AcDbLayout
  1
Model
 70
     1
 71
     0
 10
0.0
 20
0.0
 11
12.0
 21
9.0
 12
0.0
 22
0.0
 32
0.0
 14
-4.4330708661
 24
-0.0177165354
 34
0.0
 15
4.4330708661
 25
1.4492519685
 35
0.0
146
0.0
 13
0.0
 23
0.0
 33
0.0
 16
1.0
 26
0.0
 36
0.0
 17
0.0
 27
1.0
 37
0.0
 76
     0
330
1F
331
29
  0
MLINESTYLE
  5
18
102
{ACAD_REACTORS
330
17
102
}
330
17
100
AcDbMlineStyle
  2
Standard
 70
     0
  3

 62
   256
 51
90.0
 52
90.0
 71
     2
 49
0.5
 62
   256
  6
BYLAYER
 49
-0.5
 62
   256
  6
BYLAYER
  0
ACDBPLACEHOLDER
  5
F
102
{ACAD_REACTORS
330
E
102
}
330
E
  0
SCALE
  5
48
102
{ACAD_REACTORS
330
47
102
}
330
47
100
AcDbScale
 70
     0
300
1:1
140
1.0
141
1.0
290
     1
  0
SCALE
  5
49
102
{ACAD_REACTORS
330
47
102
}
330
47
100
AcDbScale
 70
     0
300
1:2
140
1.0
141
2.0
290
     0
  0
SCALE
  5
4A
102
{ACAD_REACTORS
330
47
102
}
330
47
100
AcDbScale
 70
     0
300
1:4
140
1.0
141
4.0
290
     0
  0
SCALE
  5
4B
102
{ACAD_REACTORS
330
47
102
}
330
47
100
AcDbScale
 70
     0
300
1:5
140
1.0
141
5.0
290
     0
  0
SCALE
  5
4C
102
{ACAD_REACTORS
330
47
102
}
330
47
100
AcDbScale
 70
     0
300
1:8
140
1.0
141
8.0
290
     0
  0
SCALE
  5
4D
102
{ACAD_REACTORS
330
47
102
}
330
47
100
AcDbScale
 70
     0
300
1:10
140
1.0
141
10.0
290
     0
  0
SCALE
  5
4E
102
{ACAD_REACTORS
330
47
102
}
330
47
100
AcDbScale
 70
     0
300
1:16
140
1.0
141
16.0
290
     0
  0
SCALE
  5
4F
102
{ACAD_REACTORS
330
47
102
}
330
47
100
AcDbScale
 70
     0
300
1:20
140
1.0
141
20.0
290
     0
  0
SCALE
  5
50
102
{ACAD_REACTORS
330
47
102
}
330
47
100
AcDbScale
 70
     0
300
1:30
140
1.0
141
30.0
290
     0
  0
SCALE
  5
51
102
{ACAD_REACTORS
330
47
102
}
330
47
100
AcDbScale
 70
     0
300
1:40
140
1.0
141
40.0
290
     0
  0
SCALE
  5
52
102
{ACAD_REACTORS
330
47
102
}
330
47
100
AcDbScale
 70
     0
300
1:50
140
1.0
141
50.0
290
     0
  0
SCALE
  5
53
102
{ACAD_REACTORS
330
47
102
}
330
47
100
AcDbScale
 70
     0
300
1:100
140
1.0
141
100.0
290
     0
  0
SCALE
  5
54
102
{ACAD_REACTORS
330
47
102
}
330
47
100
AcDbScale
 70
     0
300
2:1
140
2.0
141
1.0
290
     0
  0
SCALE
  5
55
102
{ACAD_REACTORS
330
47
102
}
330
47
100
AcDbScale
 70
     0
300
4:1
140
4.0
141
1.0
290
     0
  0
SCALE
  5
56
102
{ACAD_REACTORS
330
47
102
}
330
47
100
AcDbScale
 70
     0
300
8:1
140
8.0
141
1.0
290
     0
  0
SCALE
  5
57
102
{ACAD_REACTORS
330
47
102
}
330
47
100
AcDbScale
 70
     0
300
10:1
140
10.0
141
1.0
290
     0
  0
SCALE
  5
58
102
{ACAD_REACTORS
330
47
102
}
330
47
100
AcDbScale
 70
     0
300
100:1
140
100.0
141
1.0
290
     0
  0
SCALE
  5
59
102
{ACAD_REACTORS
330
47
102
}
330
47
100
AcDbScale
 70
     0
300
1/128" = 1'-0"
140
0.0078125
141
12.0
290
     0
  0
SCALE
  5
5A
102
{ACAD_REACTORS
330
47
102
}
330
47
100
AcDbScale
 70
     0
300
1/64" = 1'-0"
140
0.015625
141
12.0
290
     0
  0
SCALE
  5
5B
102
{ACAD_REACTORS
330
47
102
}
330
47
100
AcDbScale
 70
     0
300
1/32" = 1'-0"
140
0.03125
141
12.0
290
     0
  0
SCALE
  5
5C
102
{ACAD_REACTORS
330
47
102
}
330
47
100
AcDbScale
 70
     0
300
1/16" = 1'-0"
140
0.0625
141
12.0
290
     0
  0
SCALE
  5
5D
102
{ACAD_REACTORS
330
47
102
}
330
47
100
AcDbScale
 70
     0
300
3/32" = 1'-0"
140
0.09375
141
12.0
290
     0
  0
SCALE
  5
5E
102
{ACAD_REACTORS
330
47
102
}
330
47
100
AcDbScale
 70
     0
300
1/8" = 1'-0"
140
0.125
141
12.0
290
     0
  0
SCALE
  5
5F
102
{ACAD_REACTORS
330
47
102
}
330
47
100
AcDbScale
 70
     0
300
3/16" = 1'-0"
140
0.1875
141
12.0
290
     0
  0
SCALE
  5
60
102
{ACAD_REACTORS
330
47
102
}
330
47
100
AcDbScale
 70
     0
300
1/4" = 1'-0"
140
0.25
141
12.0
290
     0
  0
SCALE
  5
61
102
{ACAD_REACTORS
330
47
102
}
330
47
100
AcDbScale
 70
     0
300
3/8" = 1'-0"
140
0.375
141
12.0
290
     0
  0
SCALE
  5
62
102
{ACAD_REACTORS
330
47
102
}
330
47
100
AcDbScale
 70
     0
300
1/2" = 1'-0"
140
0.5
141
12.0
290
     0
  0
SCALE
  5
63
102
{ACAD_REACTORS
330
47
102
}
330
47
100
AcDbScale
 70
     0
300
3/4" = 1'-0"
140
0.75
141
12.0
290
     0
  0
SCALE
  5
64
102
{ACAD_REACTORS
330
47
102
}
330
47
100
AcDbScale
 70
     0
300
1" = 1'-0"
140
1.0
141
12.0
290
     0
  0
SCALE
  5
65
102
{ACAD_REACTORS
330
47
102
}
330
47
100
AcDbScale
 70
     0
300
1-1/2" = 1'-0"
140
1.5
141
12.0
290
     0
  0
SCALE
  5
66
102
{ACAD_REACTORS
330
47
102
}
330
47
100
AcDbScale
 70
     0
300
3" = 1'-0"
140
3.0
141
12.0
290
     0
  0
SCALE
  5
67
102
{ACAD_REACTORS
330
47
102
}
330
47
100
AcDbScale
 70
     0
300
6" = 1'-0"
140
6.0
141
12.0
290
     0
  0
SCALE
  5
68
102
{ACAD_REACTORS
330
47
102
}
330
47
100
AcDbScale
 70
     0
300
1'-0" = 1'-0"
140
12.0
141
12.0
290
     0
  0
ENDSEC
  0
EOF
