   0
SECTION
  2
HEADER
  9
$ACADVER
  1
AC1015
  9
$ACADMAINTVER
 70
     6
  9
$DWGCODEPAGE
  3
ANSI_1252
  9
$INSBASE
 10
0.0
 20
0.0
 30
0.0
  9
$EXTMIN
 10
-1.95
 20
-2.125
 30
0.0
  9
$EXTMAX
 10
1.95
 20
2.125
 30
0.0
  9
$LIMMIN
 10
0.0
 20
0.0
  9
$LIMMAX
 10
12.0
 20
9.0
  9
$ORTHOMODE
 70
     0
  9
$REGENMODE
 70
     1
  9
$FILLMODE
 70
     1
  9
$QTEXTMODE
 70
     0
  9
$MIRRTEXT
 70
     1
  9
$LTSCALE
 40
1.0
  9
$ATTMODE
 70
     1
  9
$TEXTSIZE
 40
0.1377952756
  9
$TRACEWID
 40
0.05
  9
$TEXTSTYLE
  7
Standard
  9
$CLAYER
  8
0
  9
$CELTYPE
  6
ByLayer
  9
$CECOLOR
 62
   256
  9
$CELTSCALE
 40
1.0
  9
$DISPSILH
 70
     0
  9
$DIMSCALE
 40
1.0
  9
$DIMASZ
 40
0.2362204724
  9
$DIMEXO
 40
0.0393700787
  9
$DIMDLI
 40
0.38
  9
$DIMRND
 40
0.0
  9
$DIMDLE
 40
0.0
  9
$DIMEXE
 40
0.0393700787
  9
$DIMTP
 40
0.0
  9
$DIMTM
 40
0.0
  9
$DIMTXT
 40
0.1377952756
  9
$DIMCEN
 40
0.09
  9
$DIMTSZ
 40
0.0
  9
$DIMTOL
 70
     0
  9
$DIMLIM
 70
     0
  9
$DIMTIH
 70
     1
  9
$DIMTOH
 70
     1
  9
$DIMSE1
 70
     0
  9
$DIMSE2
 70
     0
  9
$DIMTAD
 70
     1
  9
$DIMZIN
 70
     0
  9
$DIMBLK
  1

  9
$DIMASO
 70
     1
  9
$DIMSHO
 70
     1
  9
$DIMPOST
  1

  9
$DIMAPOST
  1

  9
$DIMALT
 70
     0
  9
$DIMALTD
 70
     2
  9
$DIMALTF
 40
25.4
  9
$DIMLFAC
 40
1.0
  9
$DIMTOFL
 70
     0
  9
$DIMTVP
 40
0.0
  9
$DIMTIX
 70
     0
  9
$DIMSOXD
 70
     0
  9
$DIMSAH
 70
     0
  9
$DIMBLK1
  1

  9
$DIMBLK2
  1

  9
$DIMSTYLE
  2
Standard
  9
$DIMCLRD
 70
     0
  9
$DIMCLRE
 70
     0
  9
$DIMCLRT
 70
     0
  9
$DIMTFAC
 40
1.0
  9
$DIMGAP
 40
0.06
  9
$DIMJUST
 70
     0
  9
$DIMSD1
 70
     0
  9
$DIMSD2
 70
     0
  9
$DIMTOLJ
 70
     1
  9
$DIMTZIN
 70
     0
  9
$DIMALTZ
 70
     0
  9
$DIMALTTZ
 70
     0
  9
$DIMUPT
 70
     0
  9
$DIMDEC
 70
     4
  9
$DIMTDEC
 70
     4
  9
$DIMALTU
 70
     2
  9
$DIMALTTD
 70
     2
  9
$DIMTXSTY
  7
Standard
  9
$DIMAUNIT
 70
     0
  9
$DIMADEC
 70
     2
  9
$DIMALTRND
 40
0.0
  9
$DIMAZIN
 70
     0
  9
$DIMDSEP
 70
    46
  9
$DIMATFIT
 70
     3
  9
$DIMFRAC
 70
     0
  9
$DIMLDRBLK
  1

  9
$DIMLUNIT
 70
     2
  9
$DIMLWD
 70
    -2
  9
$DIMLWE
 70
    -2
  9
$DIMTMOVE
 70
     0
  9
$LUNITS
 70
     2
  9
$LUPREC
 70
     4
  9
$SKETCHINC
 40
0.1
  9
$FILLETRAD
 40
0.5
  9
$AUNITS
 70
     0
  9
$AUPREC
 70
     2
  9
$MENU
  1
.
  9
$ELEVATION
 40
0.0
  9
$PELEVATION
 40
0.0
  9
$THICKNESS
 40
0.0
  9
$LIMCHECK
 70
     0
  9
$CHAMFERA
 40
0.0
  9
$CHAMFERB
 40
0.0
  9
$CHAMFERC
 40
0.0
  9
$CHAMFERD
 40
0.0
  9
$SKPOLY
 70
     0
  9
$TDCREATE
 40
2458226.57895147
  9
$TDUCREATE
 40
2458226.870618137
  9
$TDUPDATE
 40
2458226.579001794
  9
$TDUUPDATE
 40
2458226.870668461
  9
$TDINDWG
 40
0.0000000116
  9
$TDUSRTIMER
 40
0.0000000116
  9
$USRTIMER
 70
     1
  9
$ANGBASE
 50
0.0
  9
$ANGDIR
 70
     0
  9
$PDMODE
 70
     0
  9
$PDSIZE
 40
-1.0
  9
$PLINEWID
 40
0.0
  9
$SPLFRAME
 70
     0
  9
$SPLINETYPE
 70
     6
  9
$SPLINESEGS
 70
     8
  9
$HANDSEED
  5
248
  9
$SURFTAB1
 70
     6
  9
$SURFTAB2
 70
     6
  9
$SURFTYPE
 70
     6
  9
$SURFU
 70
     6
  9
$SURFV
 70
     6
  9
$UCSBASE
  2

  9
$UCSNAME
  2

  9
$UCSORG
 10
0.0
 20
0.0
 30
0.0
  9
$UCSXDIR
 10
1.0
 20
0.0
 30
0.0
  9
$UCSYDIR
 10
0.0
 20
1.0
 30
0.0
  9
$UCSORTHOREF
  2

  9
$UCSORTHOVIEW
 70
     0
  9
$UCSORGTOP
 10
0.0
 20
0.0
 30
0.0
  9
$UCSORGBOTTOM
 10
0.0
 20
0.0
 30
0.0
  9
$UCSORGLEFT
 10
0.0
 20
0.0
 30
0.0
  9
$UCSORGRIGHT
 10
0.0
 20
0.0
 30
0.0
  9
$UCSORGFRONT
 10
0.0
 20
0.0
 30
0.0
  9
$UCSORGBACK
 10
0.0
 20
0.0
 30
0.0
  9
$PUCSBASE
  2

  9
$PUCSNAME
  2

  9
$PUCSORG
 10
0.0
 20
0.0
 30
0.0
  9
$PUCSXDIR
 10
1.0
 20
0.0
 30
0.0
  9
$PUCSYDIR
 10
0.0
 20
1.0
 30
0.0
  9
$PUCSORTHOREF
  2

  9
$PUCSORTHOVIEW
 70
     0
  9
$PUCSORGTOP
 10
0.0
 20
0.0
 30
0.0
  9
$PUCSORGBOTTOM
 10
0.0
 20
0.0
 30
0.0
  9
$PUCSORGLEFT
 10
0.0
 20
0.0
 30
0.0
  9
$PUCSORGRIGHT
 10
0.0
 20
0.0
 30
0.0
  9
$PUCSORGFRONT
 10
0.0
 20
0.0
 30
0.0
  9
$PUCSORGBACK
 10
0.0
 20
0.0
 30
0.0
  9
$USERI1
 70
     0
  9
$USERI2
 70
     0
  9
$USERI3
 70
     0
  9
$USERI4
 70
     0
  9
$USERI5
 70
     0
  9
$USERR1
 40
0.0
  9
$USERR2
 40
0.0
  9
$USERR3
 40
0.0
  9
$USERR4
 40
0.0
  9
$USERR5
 40
0.0
  9
$WORLDVIEW
 70
     1
  9
$SHADEDGE
 70
     3
  9
$SHADEDIF
 70
    70
  9
$TILEMODE
 70
     0
  9
$MAXACTVP
 70
    64
  9
$PINSBASE
 10
0.0
 20
0.0
 30
0.0
  9
$PLIMCHECK
 70
     0
  9
$PEXTMIN
 10
-1.95
 20
-2.125
 30
0.0
  9
$PEXTMAX
 10
1.95
 20
2.125
 30
0.0
  9
$PLIMMIN
 10
0.0
 20
0.0
  9
$PLIMMAX
 10
0.0
 20
0.0
  9
$UNITMODE
 70
     0
  9
$VISRETAIN
 70
     1
  9
$PLINEGEN
 70
     0
  9
$PSLTSCALE
 70
     1
  9
$TREEDEPTH
 70
  3020
  9
$CMLSTYLE
  2
Standard
  9
$CMLJUST
 70
     0
  9
$CMLSCALE
 40
1.0
  9
$PROXYGRAPHICS
 70
     1
  9
$MEASUREMENT
 70
     0
  9
$CELWEIGHT
370
    -1
  9
$ENDCAPS
280
     0
  9
$JOINSTYLE
280
     0
  9
$LWDISPLAY
290
     1
  9
$INSUNITS
 70
     1
  9
$HYPERLINKBASE
  1

  9
$STYLESHEET
  1

  9
$XEDIT
290
     1
  9
$CEPSNTYPE
380
     0
  9
$PSTYLEMODE
290
     1
  9
$FINGERPRINTGUID
  2
{E946DC50-2DA8-4634-98D7-F3EEFB24DBE2}
  9
$VERSIONGUID
  2
{FAEB1C32-E019-11D5-929B-00C0DF256EC4}
  9
$EXTNAMES
290
     1
  9
$PSVPSCALE
 40
0.0
  9
$OLESTARTUP
290
     0
  0
ENDSEC
  0
SECTION
  2
CLASSES
  0
CLASS
  1
ACDBDICTIONARYWDFLT
  2
AcDbDictionaryWithDefault
  3
ObjectDBX Classes
 90
        0
280
     0
281
     0
  0
CLASS
  1
VISUALSTYLE
  2
AcDbVisualStyle
  3
ObjectDBX Classes
 90
     4095
280
     0
281
     0
  0
CLASS
  1
MATERIAL
  2
AcDbMaterial
  3
ObjectDBX Classes
 90
     1153
280
     0
281
     0
  0
CLASS
  1
SCALE
  2
AcDbScale
  3
ObjectDBX Classes
 90
     1153
280
     0
281
     0
  0
CLASS
  1
TABLESTYLE
  2
AcDbTableStyle
  3
ObjectDBX Classes
 90
     4095
280
     0
281
     0
  0
CLASS
  1
MLEADERSTYLE
  2
AcDbMLeaderStyle
  3
ACDB_MLEADERSTYLE_CLASS
 90
     4095
280
     0
281
     0
  0
CLASS
  1
SUN
  2
AcDbSun
  3
SCENEOE
 90
     1153
280
     0
281
     0
  0
CLASS
  1
ACDBPLACEHOLDER
  2
AcDbPlaceHolder
  3
ObjectDBX Classes
 90
        0
280
     0
281
     0
  0
CLASS
  1
LAYOUT
  2
AcDbLayout
  3
ObjectDBX Classes
 90
        0
280
     0
281
     0
  0
ENDSEC
  0
SECTION
  2
TABLES
  0
TABLE
  2
VPORT
  5
8
330
0
100
AcDbSymbolTable
 70
     1
  0
VPORT
  5
29
330
8
100
AcDbSymbolTableRecord
100
AcDbViewportTableRecord
  2
*Active
 70
     0
 10
0.0
 20
0.0
 11
1.0
 21
1.0
 12
0.0
 22
0.0
 13
0.0
 23
0.0
 14
0.5
 24
0.5
 15
0.5
 25
0.5
 16
0.0
 26
0.0
 36
1.0
 17
0.0
 27
0.0
 37
0.0
 40
4.335
 41
0.9176470588
 42
50.0
 43
0.0
 44
0.0
 50
0.0
 51
0.0
 71
     0
 72
   100
 73
     1
 74
     3
 75
     0
 76
     0
 77
     0
 78
     0
281
     0
 65
     1
110
0.0
120
0.0
130
0.0
111
1.0
121
0.0
131
0.0
112
0.0
122
1.0
132
0.0
 79
     0
146
0.0
  0
ENDTAB
  0
TABLE
  2
LTYPE
  5
5
330
0
100
AcDbSymbolTable
 70
     6
  0
LTYPE
  5
14
330
5
100
AcDbSymbolTableRecord
100
AcDbLinetypeTableRecord
  2
ByBlock
 70
     0
  3

 72
    65
 73
     0
 40
0.0
  0
LTYPE
  5
15
330
5
100
AcDbSymbolTableRecord
100
AcDbLinetypeTableRecord
  2
ByLayer
 70
     0
  3

 72
    65
 73
     0
 40
0.0
  0
LTYPE
  5
16
330
5
100
AcDbSymbolTableRecord
100
AcDbLinetypeTableRecord
  2
Continuous
 70
     0
  3
Solid line
 72
    65
 73
     0
 40
0.0
  0
LTYPE
  5
6E
330
5
100
AcDbSymbolTableRecord
100
AcDbLinetypeTableRecord
  2
HIDDEN
 70
     0
  3
Hidden __ __ __ __ __ __ __ __ __ __ __ __ __ __
 72
    65
 73
     2
 40
0.075
 49
0.05
 74
     0
 49
-0.025
 74
     0
  0
LTYPE
  5
6F
330
5
100
AcDbSymbolTableRecord
100
AcDbLinetypeTableRecord
  2
PHANTOM
 70
     0
  3
Phantom ______  __  __  ______  __  __  ______
 72
    65
 73
     6
 40
0.5
 49
0.25
 74
     0
 49
-0.05
 74
     0
 49
0.05
 74
     0
 49
-0.05
 74
     0
 49
0.05
 74
     0
 49
-0.05
 74
     0
  0
LTYPE
  5
70
330
5
100
AcDbSymbolTableRecord
100
AcDbLinetypeTableRecord
  2
CENTER
 70
     0
  3
Center ____ _ ____ _ ____ _ ____ _ ____ _ ____
 72
    65
 73
     4
 40
0.4
 49
0.25
 74
     0
 49
-0.05
 74
     0
 49
0.05
 74
     0
 49
-0.05
 74
     0
  0
LTYPE
  5
71
330
5
100
AcDbSymbolTableRecord
100
AcDbLinetypeTableRecord
  2
CENTERX2
 70
     0
  3
Center (2x) ________  __  ________  __  _____
 72
    65
 73
     4
 40
0.8
 49
0.5
 74
     0
 49
-0.1
 74
     0
 49
0.1
 74
     0
 49
-0.1
 74
     0
  0
LTYPE
  5
72
330
5
100
AcDbSymbolTableRecord
100
AcDbLinetypeTableRecord
  2
DOT2
 70
     0
  3
Dot (.5x) ........................................
 72
    65
 73
     2
 40
0.025
 49
0.0
 74
     0
 49
-0.025
 74
     0
  0
ENDTAB
  0
TABLE
  2
LAYER
  5
2
330
0
100
AcDbSymbolTable
 70
     1
  0
LAYER
  5
10
330
2
100
AcDbSymbolTableRecord
100
AcDbLayerTableRecord
  2
0
 70
     0
 62
     7
  6
Continuous
370
    -3
390
F
  0
ENDTAB
  0
TABLE
  2
STYLE
  5
3
330
0
100
AcDbSymbolTable
 70
     1
  0
STYLE
  5
11
330
3
100
AcDbSymbolTableRecord
100
AcDbTextStyleTableRecord
  2
Standard
 70
     0
 40
0.0
 41
1.0
 50
0.0
 71
     0
 42
0.1377952756
  3
txt
  4

  0
ENDTAB
  0
TABLE
  2
VIEW
  5
6
330
0
100
AcDbSymbolTable
 70
     0
  0
ENDTAB
  0
TABLE
  2
UCS
  5
7
330
0
100
AcDbSymbolTable
 70
     0
  0
ENDTAB
  0
TABLE
  2
APPID
  5
9
330
0
100
AcDbSymbolTable
 70
     1
  0
APPID
  5
12
330
9
100
AcDbSymbolTableRecord
100
AcDbRegAppTableRecord
  2
ACAD
 70
     0
  0
ENDTAB
  0
TABLE
  2
DIMSTYLE
  5
A
330
0
100
AcDbSymbolTable
 70
     1
100
AcDbDimStyleTable
  0
DIMSTYLE
105
27
330
A
100
AcDbSymbolTableRecord
100
AcDbDimStyleTableRecord
  2
Standard
 70
     0
178
     0
340
11
  0
ENDTAB
  0
TABLE
  2
BLOCK_RECORD
  5
1
330
0
100
AcDbSymbolTable
 70
     2
  0
BLOCK_RECORD
  5
1F
330
1
100
AcDbSymbolTableRecord
100
AcDbBlockTableRecord
  2
*Model_Space
340
22
  0
BLOCK_RECORD
  5
202
330
1
100
AcDbSymbolTableRecord
100
AcDbBlockTableRecord
  2
*Paper_Space
340
203
  0
BLOCK_RECORD
  5
1B
330
1
100
AcDbSymbolTableRecord
100
AcDbBlockTableRecord
  2
*Paper_Space0
340
1E
  0
BLOCK_RECORD
  5
23
330
1
100
AcDbSymbolTableRecord
100
AcDbBlockTableRecord
  2
*Paper_Space1
340
26
  0
ENDTAB
  0
ENDSEC
  0
SECTION
  2
BLOCKS
  0
BLOCK
  5
20
330
1F
100
AcDbEntity
  8
0
100
AcDbBlockBegin
  2
*Model_Space
 70
     0
 10
0.0
 20
0.0
 30
0.0
  3
*Model_Space
  1

  0
ENDBLK
  5
21
330
1F
100
AcDbEntity
  8
0
100
AcDbBlockEnd
  0
BLOCK
  5
204
330
202
100
AcDbEntity
 67
     1
  8
0
100
AcDbBlockBegin
  2
*Paper_Space
 70
     0
 10
0.0
 20
0.0
 30
0.0
  3
*Paper_Space
  1

  0
ENDBLK
  5
205
330
202
100
AcDbEntity
 67
     1
  8
0
100
AcDbBlockEnd
  0
BLOCK
  5
1C
330
1B
100
AcDbEntity
  8
0
100
AcDbBlockBegin
  2
*Paper_Space0
 70
     0
 10
0.0
 20
0.0
 30
0.0
  3
*Paper_Space0
  1

  0
SPLINE
  5
D7
330
1B
100
AcDbEntity
  8
0
  6
Continuous
 62
     7
370
    25
100
AcDbSpline
210
0.0
220
0.0
230
1.0
 70
     8
 71
     3
 72
    23
 73
    19
 74
     0
 42
0.000000001
 43
0.00000001
 40
0.0
 40
0.0
 40
0.0
 40
0.0
 40
0.0700437554181558
 40
0.1392383167626456
 40
0.208197455044138
 40
0.2791733744245675
 40
0.3499868116864773
 40
0.4183538456626554
 40
0.4876095837571503
 40
0.5574110731083887
 40
0.5953301567632409
 40
0.6379640515652198
 40
0.6859127777112937
 40
0.7381851646524785
 40
0.7961026471849422
 40
0.8585165439469267
 40
0.9266577264685197
 40
1.0
 40
1.0
 40
1.0
 40
1.0
 10
-0.0953193322426826
 20
0.0705331699553902
 30
0.0
 10
-0.0953690427346328
 20
0.0716409854455028
 30
0.0
 10
-0.0954678610401801
 20
0.0738431855303784
 30
0.0
 10
-0.0962023438417814
 20
0.0770706957906035
 30
0.0
 10
-0.0974365687970389
 20
0.080150841632603
 30
0.0
 10
-0.0991474583448676
 20
0.0830237977488794
 30
0.0
 10
-0.1012238807842626
 20
0.0856296561727083
 30
0.0
 10
-0.1036372407491437
 20
0.0878933225925059
 30
0.0
 10
-0.1063818573370836
 20
0.089713074668534
 30
0.0
 10
-0.1089349372990023
 20
0.0908876133161199
 30
0.0
 10
-0.1112027005284296
 20
0.0916047501441964
 30
0.0
 10
-0.1131724627285786
 20
0.0921065155165284
 30
0.0
 10
-0.1153965050311907
 20
0.0925071299356202
 30
0.0
 10
-0.1178755514686064
 20
0.0928315198094859
 30
0.0
 10
-0.1205903874481501
 20
0.0931092151332405
 30
0.0
 10
-0.1235643368534499
 20
0.0932976394337912
 30
0.0
 10
-0.1267861338323643
 20
0.0934079329864107
 30
0.0
 10
-0.1290227704805906
 20
0.0934134036658075
 30
0.0
 10
-0.1301821994443786
 20
0.0934162395596705
 30
0.0
  0
SPLINE
  5
D8
330
1B
100
AcDbEntity
  8
0
  6
Continuous
 62
     7
370
    25
100
AcDbSpline
210
0.0
220
0.0
230
1.0
 70
     8
 71
     3
 72
    23
 73
    19
 74
     0
 42
0.000000001
 43
0.00000001
 40
0.0
 40
0.0
 40
0.0
 40
0.0
 40
0.0725383714064942
 40
0.1400338305012514
 40
0.2024956806336242
 40
0.260575055669416
 40
0.3132283378464658
 40
0.3615831937532658
 40
0.4048783612951279
 40
0.4441274373055405
 40
0.5163996933371992
 40
0.5865066709977663
 40
0.6550853737960486
 40
0.7243837831470363
 40
0.7939735287256631
 40
0.8616376821817772
 40
0.9301109423064039
 40
0.9999999999999999
 40
0.9999999999999999
 40
0.9999999999999999
 40
0.9999999999999999
 10
-0.1312587250349298
 20
0.0471808456065108
 30
0.0
 10
-0.1300807751997779
 20
0.0471802368037099
 30
0.0
 10
-0.1278067673284091
 20
0.0471790615224543
 30
0.0
 10
-0.1245218766499352
 20
0.0473359600846286
 30
0.0
 10
-0.1214742669135946
 20
0.0475170834178724
 30
0.0
 10
-0.1186732993792118
 20
0.0477822772549591
 30
0.0
 10
-0.1161177114074278
 20
0.0481571299118168
 30
0.0
 10
-0.1138032417667013
 20
0.0485355447904841
 30
0.0
 10
-0.1117478369283193
 20
0.0490830000108986
 30
0.0
 10
-0.109342356543837
 20
0.0498201287171633
 30
0.0
 10
-0.1066619097927824
 20
0.0510773183101155
 30
0.0
 10
-0.103745864575334
 20
0.0529021171311223
 30
0.0
 10
-0.1012745816481186
 20
0.0552281292649845
 30
0.0
 10
-0.0991360660275845
 20
0.0578433982148468
 30
0.0
 10
-0.0974389842189861
 20
0.0607528127591797
 30
0.0
 10
-0.0961966223167627
 20
0.0638657630239839
 30
0.0
 10
-0.0954666554914261
 20
0.0671503240287754
 30
0.0
 10
-0.095368773851439
 20
0.0693978885506328
 30
0.0
 10
-0.0953193322426826
 20
0.0705331699553902
 30
0.0
  0
SPLINE
  5
DC
330
1B
100
AcDbEntity
  8
0
  6
Continuous
 62
     7
370
    25
100
AcDbSpline
210
0.0
220
0.0
230
1.0
 70
     8
 71
     3
 72
    27
 73
    23
 74
     0
 42
0.000000001
 43
0.00000001
 40
0.0
 40
0.0
 40
0.0
 40
0.0
 40
0.0656811979906388
 40
0.128486464174065
 40
0.1881751303280079
 40
0.2451061306699863
 40
0.2994484245294757
 40
0.3508229360093824
 40
0.3999416805337782
 40
0.4466717436323723
 40
0.4912545333734986
 40
0.533376344270437
 40
0.5738527549682243
 40
0.6125263117194528
 40
0.6495971364453297
 40
0.6855320415538508
 40
0.7201057860682012
 40
0.7538376629736498
 40
0.8189254160467134
 40
0.8804934616501646
 40
0.9403113338460568
 40
1.0
 40
1.0
 40
1.0
 40
1.0
 10
0.3957971628108203
 20
0.0386514505429129
 30
0.0
 10
0.3957755018173976
 20
0.0403076541853556
 30
0.0
 10
0.3957331282837148
 20
0.0435475425625436
 30
0.0
 10
0.3955711602639856
 20
0.0482923528248321
 30
0.0
 10
0.3951529092997335
 20
0.0527989575850349
 30
0.0
 10
0.3946883770609736
 20
0.0570867714694567
 30
0.0
 10
0.394003447096718
 20
0.0611320589775076
 30
0.0
 10
0.393264950762848
 20
0.0649686851687011
 30
0.0
 10
0.3922727770506343
 20
0.068549119216707
 30
0.0
 10
0.3912129433902412
 20
0.0719294177092899
 30
0.0
 10
0.3899999356921533
 20
0.0750711757605023
 30
0.0
 10
0.3886646705639026
 20
0.0779890413653038
 30
0.0
 10
0.3872386170690592
 20
0.0806971013950993
 30
0.0
 10
0.3856897099643639
 20
0.0831879258666155
 30
0.0
 10
0.3840363366153373
 20
0.0854726716505185
 30
0.0
 10
0.3822348583004725
 20
0.0875055297039466
 30
0.0
 10
0.3803567333866597
 20
0.0893495048263303
 30
0.0
 10
0.3777261355195866
 20
0.0914543303822989
 30
0.0
 10
0.3742822658424059
 20
0.0936004601257304
 30
0.0
 10
0.3699970041360107
 20
0.0955754900414917
 30
0.0
 10
0.365537529952895
 20
0.0967096747903463
 30
0.0
 10
0.3625228270358861
 20
0.0968695837288555
 30
0.0
 10
0.3610171052699361
 20
0.0969494517543
 30
0.0
  0
SPLINE
  5
DD
330
1B
100
AcDbEntity
  8
0
  6
Continuous
 62
     7
370
    25
100
AcDbSpline
210
0.0
220
0.0
230
1.0
 70
     8
 71
     3
 72
    15
 73
    11
 74
     0
 42
0.000000001
 43
0.00000001
 40
0.0
 40
0.0
 40
0.0
 40
0.0
 40
0.1105883385953353
 40
0.2245417540535956
 40
0.3425034940501039
 40
0.4643240984173577
 40
0.5907560327017664
 40
0.7222274753555143
 40
0.8588428362087241
 40
1.0
 40
1.0
 40
1.0
 40
1.0
 10
0.3905801541796877
 20
0.0040094091033813
 30
0.0
 10
0.390995578108576
 20
0.0052389264052054
 30
0.0
 10
0.3918390668421373
 20
0.0077353738163653
 30
0.0
 10
0.3929261445693322
 20
0.0116079585439436
 30
0.0
 10
0.3937822626482177
 20
0.0156710594863821
 30
0.0
 10
0.3945524738981951
 20
0.0199003947902578
 30
0.0
 10
0.3950781847602958
 20
0.0243271546725799
 30
0.0
 10
0.3955013270155415
 20
0.028937642228318
 30
0.0
 10
0.3957505666588194
 20
0.0337353336549104
 30
0.0
 10
0.3957814623702891
 20
0.036994978977558
 30
0.0
 10
0.3957971628108203
 20
0.0386514505429129
 30
0.0
  0
SPLINE
  5
DE
330
1B
100
AcDbEntity
  8
0
  6
Continuous
 62
     7
370
    25
100
AcDbSpline
210
0.0
220
0.0
230
1.0
 70
     8
 71
     3
 72
    19
 73
    15
 74
     0
 42
0.000000001
 43
0.00000001
 40
0.0
 40
0.0
 40
0.0
 40
0.0
 40
0.1128134007444582
 40
0.2253938839207301
 40
0.3395948145627006
 40
0.4596754102248634
 40
0.5217351900879318
 40
0.5839258387389149
 40
0.6481741447653689
 40
0.7138810381130669
 40
0.7810044549073893
 40
0.8514509275565553
 40
0.9240506926641772
 40
1.0
 40
1.0
 40
1.0
 40
1.0
 10
0.3610171052699361
 20
-0.0196465506684741
 30
0.0
 10
0.3625429978548079
 20
-0.0195836459121139
 30
0.0
 10
0.3655916326258594
 20
-0.0194579662742379
 30
0.0
 10
0.370045719048865
 20
-0.0182454175587173
 30
0.0
 10
0.3743697454300562
 20
-0.0164159081310134
 30
0.0
 10
0.3777584044961542
 20
-0.0142526205160819
 30
0.0
 10
0.3803364573899115
 20
-0.0121924500652443
 30
0.0
 10
0.3821835829846323
 20
-0.0104359678482006
 30
0.0
 10
0.3838789392221622
 20
-0.008469201418814
 30
0.0
 10
0.3854868949250995
 20
-0.0063471818946049
 30
0.0
 10
0.3869616616839532
 20
-0.0040293675570543
 30
0.0
 10
0.3883027300971506
 20
-0.0015269039639043
 30
0.0
 10
0.3895264839375109
 20
0.0011671581586231
 30
0.0
 10
0.3902236904709858
 20
0.00304785654901
 30
0.0
 10
0.3905801541796877
 20
0.0040094091033813
 30
0.0
  0
SPLINE
  5
DF
330
1B
100
AcDbEntity
  8
0
  6
Continuous
 62
     7
370
    25
100
AcDbSpline
210
0.0
220
0.0
230
1.0
 70
     8
 71
     3
 72
    27
 73
    23
 74
     0
 42
0.000000001
 43
0.00000001
 40
0.0
 40
0.0
 40
0.0
 40
0.0
 40
0.0729510658758665
 40
0.141583694186545
 40
0.2059264601708669
 40
0.2653013571846052
 40
0.320597232713928
 40
0.3718165030988102
 40
0.418789769709452
 40
0.4616987286157644
 40
0.5021335821035651
 40
0.5408043152926477
 40
0.5781805253279659
 40
0.6142968652075139
 40
0.6496782432647873
 40
0.6842994600896377
 40
0.7183589527723607
 40
0.7520808646475959
 40
0.8176524386023859
 40
0.8797220764054368
 40
0.9399655597309875
 40
1.0
 40
1.0
 40
1.0
 40
1.0
 10
0.3268995250155448
 20
0.0386514505429129
 30
0.0
 10
0.3269042276559981
 20
0.0368109505900053
 30
0.0
 10
0.3269133545577073
 20
0.0332389015821644
 30
0.0
 10
0.3271517876512984
 20
0.0280482220161825
 30
0.0
 10
0.3274765999347424
 20
0.023206870487948
 30
0.0
 10
0.3278955486428191
 20
0.0187086997609743
 30
0.0
 10
0.3285177119706151
 20
0.0145689354889345
 30
0.0
 10
0.3292148296012326
 20
0.0107591054470002
 30
0.0
 10
0.3300631795862412
 20
0.0072993717023622
 30
0.0
 10
0.331066920447147
 20
0.0041659933281681
 30
0.0
 10
0.3322101919783855
 20
0.001305793781107
 30
0.0
 10
0.3334584543276006
 20
-0.0013556713813866
 30
0.0
 10
0.3347994276703136
 20
-0.0038498421072047
 30
0.0
 10
0.3363001816290925
 20
-0.0061543148778395
 30
0.0
 10
0.3379346329373208
 20
-0.0082766048019679
 30
0.0
 10
0.3396658636120256
 20
-0.0102542753658377
 30
0.0
 10
0.3415584850388804
 20
-0.0120179360483415
 30
0.0
 10
0.3441767426193217
 20
-0.0141331665613129
 30
0.0
 10
0.347633296730623
 20
-0.0163189592278324
 30
0.0
 10
0.3519884327633436
 20
-0.0182223485912826
 30
0.0
 10
0.3564635686287571
 20
-0.0194185082933421
 30
0.0
 10
0.3595010194195811
 20
-0.019570624669528
 30
0.0
 10
0.3610171052699361
 20
-0.0196465506684741
 30
0.0
  0
SPLINE
  5
E0
330
1B
100
AcDbEntity
  8
0
  6
Continuous
 62
     7
370
    25
100
AcDbSpline
210
0.0
220
0.0
230
1.0
 70
     8
 71
     3
 72
    27
 73
    23
 74
     0
 42
0.000000001
 43
0.00000001
 40
0.0
 40
0.0
 40
0.0
 40
0.0
 40
0.0603866193110622
 40
0.1208832485859964
 40
0.1827546186251393
 40
0.2478110297583519
 40
0.2812991000432492
 40
0.3150876241506572
 40
0.3497023955502755
 40
0.3848565811185554
 40
0.4209661972261028
 40
0.4585111882611394
 40
0.4971747221273121
 40
0.5376020478662696
 40
0.5805030184200116
 40
0.6274675400267047
 40
0.6783882095592434
 40
0.7339832205925605
 40
0.793746704550835
 40
0.8577136721607321
 40
0.9266978643613859
 40
0.9999999999999999
 40
0.9999999999999999
 40
0.9999999999999999
 40
0.9999999999999999
 10
0.3610171052699361
 20
0.0969494517543
 30
0.0
 10
0.3594930662114004
 20
0.0968694735398412
 30
0.0
 10
0.3564422116600182
 20
0.0967093714097635
 30
0.0
 10
0.3519363866707756
 20
0.0955797157565514
 30
0.0
 10
0.3476173177084803
 20
0.0936107013495586
 30
0.0
 10
0.3441825549258485
 20
0.0914472221186564
 30
0.0
 10
0.3415501223861792
 20
0.0893866586760716
 30
0.0
 10
0.339696473040638
 20
0.0875997904060534
 30
0.0
 10
0.3379584347643505
 20
0.0856452134625442
 30
0.0
 10
0.3363573442077504
 20
0.0835034057912703
 30
0.0
 10
0.3348577661293146
 20
0.0812016196763441
 30
0.0
 10
0.3334805609097988
 20
0.0787217470493654
 30
0.0
 10
0.3322397211587734
 20
0.076051220898759
 30
0.0
 10
0.331094660679239
 20
0.073192306118481
 30
0.0
 10
0.3300878580010415
 20
0.0700591980698375
 30
0.0
 10
0.3292573870077348
 20
0.0666037258811185
 30
0.0
 10
0.3284901801919909
 20
0.0628060136059538
 30
0.0
 10
0.3279470593691341
 20
0.0586438282537809
 30
0.0
 10
0.3274642343391457
 20
0.0541445308770396
 30
0.0
 10
0.3271539450496866
 20
0.0492910931514752
 30
0.0
 10
0.3269125569603469
 20
0.0440917080962642
 30
0.0
 10
0.3269039560011833
 20
0.0405011900449789
 30
0.0
 10
0.3268995250155448
 20
0.0386514505429129
 30
0.0
  0
SPLINE
  5
F8
330
1B
100
AcDbEntity
  8
0
  6
Continuous
 62
     7
370
    25
100
AcDbSpline
210
0.0
220
0.0
230
1.0
 70
     8
 71
     3
 72
    15
 73
    11
 74
     0
 42
0.000000001
 43
0.00000001
 40
0.0
 40
0.0
 40
0.0
 40
0.0
 40
0.0751731173762211
 40
0.164746257511801
 40
0.2680168809877798
 40
0.3859118756529554
 40
0.5177894792733981
 40
0.6636909770022813
 40
0.8244132205366415
 40
1.0
 40
1.0
 40
1.0
 40
1.0
 10
-0.1104458969509402
 20
0.0356150963131532
 30
0.0
 10
-0.1113091778167439
 20
0.0354315143809527
 30
0.0
 10
-0.1132011080277916
 20
0.0350291839025525
 30
0.0
 10
-0.1163169632316398
 20
0.0345800320582657
 30
0.0
 10
-0.1199447343312391
 20
0.0341966619525395
 30
0.0
 10
-0.1240794697609858
 20
0.0339092155910805
 30
0.0
 10
-0.128717458143725
 20
0.0336631380925762
 30
0.0
 10
-0.1338612084322975
 20
0.0334675438449118
 30
0.0
 10
-0.1395208177700656
 20
0.0333600692844724
 30
0.0
 10
-0.1434685045447884
 20
0.0333545262609098
 30
0.0
 10
-0.1455295899148005
 20
0.0333516322509687
 30
0.0
  0
SPLINE
  5
F9
330
1B
100
AcDbEntity
  8
0
  6
Continuous
 62
     7
370
    25
100
AcDbSpline
210
0.0
220
0.0
230
1.0
 70
     8
 71
     3
 72
    23
 73
    19
 74
     0
 42
0.000000001
 43
0.00000001
 40
0.0
 40
0.0
 40
0.0
 40
0.0
 40
0.0701188944197149
 40
0.1371923527859712
 40
0.2020161807247511
 40
0.2646314069747434
 40
0.3261165471458178
 40
0.3860103046676407
 40
0.4458118469576801
 40
0.5052976967309599
 40
0.5646332777264886
 40
0.6242826253338405
 40
0.6839020319037509
 40
0.7439527709382697
 40
0.8053877310076346
 40
0.8683880308962793
 40
0.9330840282524765
 40
1.0
 40
1.0
 40
1.0
 40
1.0
 10
-0.0829530895614793
 20
0.0705883763959313
 30
0.0
 10
-0.0829696810862415
 20
0.0694553930578414
 30
0.0
 10
-0.083002143525036
 20
0.0672386346347914
 30
0.0
 10
-0.0833917610576674
 20
0.0639956114777562
 30
0.0
 10
-0.0839165717513176
 20
0.0608964622599769
 30
0.0
 10
-0.0847235423153805
 20
0.0579480586981886
 30
0.0
 10
-0.0857804585790972
 20
0.0551679102544577
 30
0.0
 10
-0.0870203031793212
 20
0.0525135310410428
 30
0.0
 10
-0.0885157177608085
 20
0.0500300793914917
 30
0.0
 10
-0.0902340181431116
 20
0.0477085393307966
 30
0.0
 10
-0.09214549823732
 20
0.0455467317593727
 30
0.0
 10
-0.0942420706053224
 20
0.0435603225273764
 30
0.0
 10
-0.0965152710974589
 20
0.0417609391249147
 30
0.0
 10
-0.0989578753524338
 20
0.0401445476414349
 30
0.0
 10
-0.10159369617277
 20
0.038748631125778
 30
0.0
 10
-0.1043827573369805
 20
0.0374983435302845
 30
0.0
 10
-0.1073493012905995
 20
0.0364483017728635
 30
0.0
 10
-0.1094021561715195
 20
0.035895937149777
 30
0.0
 10
-0.1104458969509402
 20
0.0356150963131532
 30
0.0
  0
SPLINE
  5
FA
330
1B
100
AcDbEntity
  8
0
  6
Continuous
 62
     7
370
    25
100
AcDbSpline
210
0.0
220
0.0
230
1.0
 70
     8
 71
     3
 72
    23
 73
    19
 74
     0
 42
0.000000001
 43
0.00000001
 40
0.0
 40
0.0
 40
0.0
 40
0.0
 40
0.0624813386352046
 40
0.1234903826872903
 40
0.1834110942063115
 40
0.2431532209997794
 40
0.3021267353720876
 40
0.3617096708329063
 40
0.42184229169488
 40
0.4829319014466686
 40
0.5445522544313239
 40
0.6056807199653585
 40
0.6676797383436879
 40
0.7299843875380634
 40
0.7945509212861293
 40
0.8603456197120827
 40
0.9289073562657088
 40
1.0
 40
1.0
 40
1.0
 40
1.0
 10
-0.1093417681401185
 20
0.1054788468178978
 30
0.0
 10
-0.1083892668099889
 20
0.1052181401316104
 30
0.0
 10
-0.1065067086520307
 20
0.1047028699859637
 30
0.0
 10
-0.1037940691598406
 20
0.1036708336286549
 30
0.0
 10
-0.1012132091015581
 20
0.1024471263382812
 30
0.0
 10
-0.0987552737297007
 20
0.1010524830370647
 30
0.0
 10
-0.0964504673095874
 20
0.0994270671241851
 30
0.0
 10
-0.0942644027046265
 20
0.0976367672131895
 30
0.0
 10
-0.0922163719843235
 20
0.0956402487654559
 30
0.0
 10
-0.0903178919888835
 20
0.0934599046769743
 30
0.0
 10
-0.0885743960210116
 20
0.0911323373588052
 30
0.0
 10
-0.0870732274097053
 20
0.0886228007482742
 30
0.0
 10
-0.085816249967451
 20
0.0859735368341073
 30
0.0
 10
-0.0847381684129566
 20
0.0831863883633459
 30
0.0
 10
-0.0839622450086575
 20
0.0802379504306161
 30
0.0
 10
-0.0833777213982065
 20
0.0771487097859631
 30
0.0
 10
-0.0830067124369606
 20
0.0739189975733058
 30
0.0
 10
-0.0829711785095927
 20
0.0717119161748466
 30
0.0
 10
-0.0829530895614793
 20
0.0705883763959313
 30
0.0
  0
SPLINE
  5
FB
330
1B
100
AcDbEntity
  8
0
  6
Continuous
 62
     7
370
    25
100
AcDbSpline
210
0.0
220
0.0
230
1.0
 70
     8
 71
     3
 72
    15
 73
    11
 74
     0
 42
0.000000001
 43
0.00000001
 40
0.0
 40
0.0
 40
0.0
 40
0.0
 40
0.1769557521312497
 40
0.3390550796425811
 40
0.4863182249420762
 40
0.6187809228353784
 40
0.7356188277673814
 40
0.8387424767201108
 40
0.9264570678763173
 40
0.9999999999999999
 40
0.9999999999999999
 40
0.9999999999999999
 40
0.9999999999999999
 10
-0.140726629587726
 20
0.1075490883381885
 30
0.0
 10
-0.1388679324951409
 20
0.1075470451791002
 30
0.0
 10
-0.1353065863214915
 20
0.1075431303955507
 30
0.0
 10
-0.1301996943644488
 20
0.1074244396150135
 30
0.0
 10
-0.125561515953963
 20
0.107265908430259
 30
0.0
 10
-0.1214020521379503
 20
0.1070461488557266
 30
0.0
 10
-0.1177085049691873
 20
0.1067864405782658
 30
0.0
 10
-0.1144975876642046
 20
0.1064221870594694
 30
0.0
 10
-0.1117440618242895
 20
0.1060418604628817
 30
0.0
 10
-0.1100942016098598
 20
0.1056551909148741
 30
0.0
 10
-0.1093417681401185
 20
0.1054788468178978
 30
0.0
  0
SPLINE
  5
FE
330
1B
100
AcDbEntity
  8
0
  6
Continuous
 62
     7
370
    25
100
AcDbSpline
210
0.0
220
0.0
230
1.0
 70
     8
 71
     3
 72
    23
 73
    19
 74
     0
 42
0.000000001
 43
0.00000001
 40
0.0
 40
0.0
 40
0.0
 40
0.0
 40
0.0645578459297189
 40
0.1270135315497587
 40
0.1879548102020905
 40
0.248013912789634
 40
0.3077476818488372
 40
0.3682345146974851
 40
0.4294698439426693
 40
0.4927434367465851
 40
0.5562577687060832
 40
0.6182167855431434
 40
0.6796554755875547
 40
0.741245545620629
 40
0.8034152647056964
 40
0.8668154615439922
 40
0.9323283119492652
 40
1.0
 40
1.0
 40
1.0
 40
1.0
 10
-0.4468739456083196
 20
0.0394519439307587
 30
0.0
 10
-0.4468127175155217
 20
0.0419305050938012
 30
0.0
 10
-0.4466922550653832
 20
0.046806919446641
 30
0.0
 10
-0.4456687985507479
 20
0.0539633743005432
 30
0.0
 10
-0.4440223892518703
 20
0.0608197285861045
 30
0.0
 10
-0.441683929070965
 20
0.0673631830974383
 30
0.0
 10
-0.438719151460517
 20
0.073628154760118
 30
0.0
 10
-0.4350566863487249
 20
0.0795667848721949
 30
0.0
 10
-0.4307390823242597
 20
0.0852170525752078
 30
0.0
 10
-0.4258002017067945
 20
0.0904932238861345
 30
0.0
 10
-0.4203841648839697
 20
0.0953176078476409
 30
0.0
 10
-0.4145842115812524
 20
0.09956194657789
 30
0.0
 10
-0.4084116939839049
 20
0.1030941322471453
 30
0.0
 10
-0.4019346132092759
 20
0.1060467370670713
 30
0.0
 10
-0.3951044682657075
 20
0.1083162041196634
 30
0.0
 10
-0.3879358316859663
 20
0.1099049122569843
 30
0.0
 10
-0.3804421736237118
 20
0.1108937751030429
 30
0.0
 10
-0.3753294797005101
 20
0.1110187832881936
 30
0.0
 10
-0.3727316959616409
 20
0.1110823005328181
 30
0.0
  0
SPLINE
  5
FF
330
1B
100
AcDbEntity
  8
0
  6
Continuous
 62
     7
370
    25
100
AcDbSpline
210
0.0
220
0.0
230
1.0
 70
     8
 71
     3
 72
    15
 73
    11
 74
     0
 42
0.000000001
 43
0.00000001
 40
0.0
 40
0.0
 40
0.0
 40
0.0
 40
0.1243285095938499
 40
0.247156016361187
 40
0.3687797492913395
 40
0.4907338624016481
 40
0.6136137718478439
 40
0.7389575757222155
 40
0.8673105751912625
 40
1.0
 40
1.0
 40
1.0
 40
1.0
 10
-0.4294011071770658
 20
-0.009681788150808
 30
0.0
 10
-0.4307962112518611
 20
-0.0079675681147008
 30
0.0
 10
-0.4335695764813009
 20
-0.0045598236104446
 30
0.0
 10
-0.4371178317392201
 20
0.0009632465178408
 30
0.0
 10
-0.4401551370624199
 20
0.0067297114342117
 30
0.0
 10
-0.4426108819749462
 20
0.0127698661105238
 30
0.0
 10
-0.4445306746188291
 20
0.0190701569467626
 30
0.0
 10
-0.4458606429290556
 20
0.0256337598763174
 30
0.0
 10
-0.4467248793258194
 20
0.0324545450023879
 30
0.0
 10
-0.4468237095927948
 20
0.0370937886504152
 30
0.0
 10
-0.4468739456083196
 20
0.0394519439307587
 30
0.0
  0
SPLINE
  5
100
330
1B
100
AcDbEntity
  8
0
  6
Continuous
 62
     7
370
    25
100
AcDbSpline
210
0.0
220
0.0
230
1.0
 70
     8
 71
     3
 72
    23
 73
    19
 74
     0
 42
0.000000001
 43
0.00000001
 40
0.0
 40
0.0
 40
0.0
 40
0.0
 40
0.0696628008990778
 40
0.1377495622582733
 40
0.2039167435177836
 40
0.2687798623293377
 40
0.3324137064772243
 40
0.39475354044714
 40
0.4561800316591689
 40
0.51699564919672
 40
0.5773959379659527
 40
0.6371983435092754
 40
0.6969991842614552
 40
0.7567561942255594
 40
0.8165539052726082
 40
0.8769479965978708
 40
0.9381317879205956
 40
1.0
 40
1.0
 40
1.0
 40
1.0
 10
-0.3725660766400176
 20
-0.0337793994469922
 30
0.0
 10
-0.3740481107761476
 20
-0.0337690847794414
 30
0.0
 10
-0.3769786497563343
 20
-0.033748688801651
 30
0.0
 10
-0.3813053722607488
 20
-0.0334182885098809
 30
0.0
 10
-0.3855175604812861
 20
-0.0329675114661806
 30
0.0
 10
-0.3896031756728884
 20
-0.0322887661487014
 30
0.0
 10
-0.3935845132731428
 20
-0.0314878078788633
 30
0.0
 10
-0.3974254811664826
 20
-0.0304141363581853
 30
0.0
 10
-0.4011638752750836
 20
-0.029211413263849
 30
0.0
 10
-0.4047846760898914
 20
-0.0277978311085447
 30
0.0
 10
-0.4082909634834581
 20
-0.0262027058117974
 30
0.0
 10
-0.4116714284979431
 20
-0.024399888532226
 30
0.0
 10
-0.4149245163876669
 20
-0.0224045395298133
 30
0.0
 10
-0.4180822101221259
 20
-0.0202606414816382
 30
0.0
 10
-0.4210978630227173
 20
-0.0178993303843767
 30
0.0
 10
-0.423997608115135
 20
-0.0153533998921075
 30
0.0
 10
-0.4267977056046076
 20
-0.0126314309648887
 30
0.0
 10
-0.4285300947775113
 20
-0.0106686414632208
 30
0.0
 10
-0.4294011071770658
 20
-0.009681788150808
 30
0.0
  0
SPLINE
  5
101
330
1B
100
AcDbEntity
  8
0
  6
Continuous
 62
     7
370
    25
100
AcDbSpline
210
0.0
220
0.0
230
1.0
 70
     8
 71
     3
 72
    23
 73
    19
 74
     0
 42
0.000000001
 43
0.00000001
 40
0.0
 40
0.0
 40
0.0
 40
0.0
 40
0.0616742388774261
 40
0.1230530616348063
 40
0.1834750007317025
 40
0.2437265005106117
 40
0.3042789165122542
 40
0.3648629209606832
 40
0.4259462039686199
 40
0.4873912299654086
 40
0.5492203840754762
 40
0.6111435886926031
 40
0.6735285303101519
 40
0.7369614566573043
 40
0.8007852828728406
 40
0.8660125956416155
 40
0.9321007477905793
 40
0.9999999999999999
 40
0.9999999999999999
 40
0.9999999999999999
 40
0.9999999999999999
 10
-0.3126118822123979
 20
-0.0048788278237335
 30
0.0
 10
-0.313482673940001
 20
-0.0060023889230766
 30
0.0
 10
-0.3152200863520259
 20
-0.0082441293275704
 30
0.0
 10
-0.3180333941073951
 20
-0.0114044328600136
 30
0.0
 10
-0.32099706723321
 20
-0.0143770326828141
 30
0.0
 10
-0.3241331188082843
 20
-0.0171379626524001
 30
0.0
 10
-0.3274054728078784
 20
-0.0197424691722757
 30
0.0
 10
-0.3308728866797152
 20
-0.0221165570177757
 30
0.0
 10
-0.3344897777232294
 20
-0.0242933634855855
 30
0.0
 10
-0.3382438910659706
 20
-0.0262865494899985
 30
0.0
 10
-0.342131238026586
 20
-0.0280549450421436
 30
0.0
 10
-0.3461471606620974
 20
-0.0295688729079707
 30
0.0
 10
-0.3502743486740661
 20
-0.0308730024171256
 30
0.0
 10
-0.3545129907375333
 20
-0.0319459133117666
 30
0.0
 10
-0.3588718788015853
 20
-0.0327833575587531
 30
0.0
 10
-0.3633352832934434
 20
-0.0333431872770506
 30
0.0
 10
-0.3679128374359251
 20
-0.0337267272154302
 30
0.0
 10
-0.3710010823621351
 20
-0.0337616845311277
 30
0.0
 10
-0.3725660766400176
 20
-0.0337793994469922
 30
0.0
  0
SPLINE
  5
103
330
1B
100
AcDbEntity
  8
0
  6
Continuous
 62
     7
370
    25
100
AcDbSpline
210
0.0
220
0.0
230
1.0
 70
     8
 71
     3
 72
    15
 73
    11
 74
     0
 42
0.000000001
 43
0.00000001
 40
0.0
 40
0.0
 40
0.0
 40
0.0
 40
0.1285151895116617
 40
0.2529486363526577
 40
0.3747547340060044
 40
0.4959397538670499
 40
0.617180641429892
 40
0.7409094692781376
 40
0.8678111481862024
 40
1.0
 40
1.0
 40
1.0
 40
1.0
 10
-0.3726488863008292
 20
-0.0196465506684741
 30
0.0
 10
-0.3702432686239164
 20
-0.0195800632767061
 30
0.0
 10
-0.3655084375640771
 20
-0.019449200184598
 30
0.0
 10
-0.3585648144797738
 20
-0.0183405683293671
 30
0.0
 10
-0.351917737092814
 20
-0.0165430125090906
 30
0.0
 10
-0.3455668478589
 20
-0.014027346276052
 30
0.0
 10
-0.3395300507642212
 20
-0.0107570593507474
 30
0.0
 10
-0.3337978987835514
 20
-0.006792575988251
 30
0.0
 10
-0.3283655534881202
 20
-0.0020961849346834
 30
0.0
 10
-0.3250989675733018
 20
0.0014897649967019
 30
0.0
 10
-0.3234323445584508
 20
0.0033193285966178
 30
0.0
  0
SPLINE
  5
104
330
1B
100
AcDbEntity
  8
0
  6
Continuous
 62
     7
370
    25
100
AcDbSpline
210
0.0
220
0.0
230
1.0
 70
     8
 71
     3
 72
    23
 73
    19
 74
     0
 42
0.000000001
 43
0.00000001
 40
0.0
 40
0.0
 40
0.0
 40
0.0
 40
0.0643232165798421
 40
0.1262901037035559
 40
0.1867264692161329
 40
0.2461464323353445
 40
0.3055756426461386
 40
0.3654293856180522
 40
0.4263263089482599
 40
0.4888399064006412
 40
0.5517249718140474
 40
0.6139185964661595
 40
0.6754837657683964
 40
0.7373338970992861
 40
0.8002290443945267
 40
0.864502298123323
 40
0.9310407391556971
 40
1.0
 40
1.0
 40
1.0
 40
1.0
 10
-0.4345077029271163
 20
0.0385134344415602
 30
0.0
 10
-0.4344580250127895
 20
0.0364767683028706
 30
0.0
 10
-0.4343604890174566
 20
0.0324780444899007
 30
0.0
 10
-0.4334924443686197
 20
0.0266209338386707
 30
0.0
 10
-0.4321733462863896
 20
0.0210098836898411
 30
0.0
 10
-0.4301963550684487
 20
0.01567996863823
 30
0.0
 10
-0.4277585971723668
 20
0.0105654663524819
 30
0.0
 10
-0.4246782581367241
 20
0.0057529130687643
 30
0.0
 10
-0.4211106779255351
 20
0.0011695837572862
 30
0.0
 10
-0.4170053858207668
 20
-0.0030762015871406
 30
0.0
 10
-0.4125012198369385
 20
-0.0069546947091129
 30
0.0
 10
-0.4076686248922959
 20
-0.0103700719339678
 30
0.0
 10
-0.4025196371842606
 20
-0.0132171145507545
 30
0.0
 10
-0.3971111084367567
 20
-0.0155862463033653
 30
0.0
 10
-0.391401418912402
 20
-0.0174073773134264
 30
0.0
 10
-0.3854008361402024
 20
-0.0186894294198539
 30
0.0
 10
-0.3791224111303566
 20
-0.01952573574039
 30
0.0
 10
-0.3748322772764189
 20
-0.0196058021998049
 30
0.0
 10
-0.3726488863008292
 20
-0.0196465506684741
 30
0.0
  0
SPLINE
  5
105
330
1B
100
AcDbEntity
  8
0
  6
Continuous
 62
     7
370
    25
100
AcDbSpline
210
0.0
220
0.0
230
1.0
 70
     8
 71
     3
 72
    19
 73
    15
 74
     0
 42
0.000000001
 43
0.00000001
 40
0.0
 40
0.0
 40
0.0
 40
0.0
 40
0.0631632593634701
 40
0.1254749410306406
 40
0.1871212198160326
 40
0.2482943461142987
 40
0.3092948562551213
 40
0.3698500660670937
 40
0.4309733755473823
 40
0.4924559896728175
 40
0.6161479662918559
 40
0.7408436984673633
 40
0.8681826486700441
 40
0.9999999999999999
 40
0.9999999999999999
 40
0.9999999999999999
 40
0.9999999999999999
 10
-0.3234323445584508
 20
0.0739835724892081
 30
0.0
 10
-0.3242042299268054
 20
0.0749034925612999
 30
0.0
 10
-0.3257375939750308
 20
0.0767309301882026
 30
0.0
 10
-0.3282044917121923
 20
0.0792970539864262
 30
0.0
 10
-0.3307754225348755
 20
0.0817011981369269
 30
0.0
 10
-0.3334494036851113
 20
0.0839548154451518
 30
0.0
 10
-0.3362745658696372
 20
0.0859790975606933
 30
0.0
 10
-0.339182471328925
 20
0.0878795346844305
 30
0.0
 10
-0.3422217644472947
 20
0.0895829889341363
 30
0.0
 10
-0.3464245886459337
 20
0.0916484608284648
 30
0.0
 10
-0.3519225354286252
 20
0.0938038212620165
 30
0.0
 10
-0.3588435920850474
 20
0.0956110350927332
 30
0.0
 10
-0.3660684384820831
 20
0.0967614750803043
 30
0.0
 10
-0.3709974778374763
 20
0.0968860751377518
 30
0.0
 10
-0.373504586129216
 20
0.0969494517543
 30
0.0
  0
SPLINE
  5
107
330
1B
100
AcDbEntity
  8
0
  6
Continuous
 62
     7
370
    25
100
AcDbSpline
210
0.0
220
0.0
230
1.0
 70
     8
 71
     3
 72
    23
 73
    19
 74
     0
 42
0.000000001
 43
0.00000001
 40
0.0
 40
0.0
 40
0.0
 40
0.0
 40
0.0685475367089032
 40
0.135682945623048
 40
0.2012149895263283
 40
0.265682234754696
 40
0.3292668348172588
 40
0.3923954278443281
 40
0.4550697616521433
 40
0.5171268500645064
 40
0.5787900352866522
 40
0.6397398633435413
 40
0.7001915036663079
 40
0.7598062425966703
 40
0.8196283192750077
 40
0.8793547910462761
 40
0.939511607764661
 40
0.9999999999999999
 40
0.9999999999999999
 40
0.9999999999999999
 40
0.9999999999999999
 10
-0.3727316959616409
 20
0.1110823005328181
 30
0.0
 10
-0.3711484490346169
 20
0.11106331871428
 30
0.0
 10
-0.3680145711883639
 20
0.1110257461161067
 30
0.0
 10
-0.3633786399910269
 20
0.1106593625682866
 30
0.0
 10
-0.3588651625523172
 20
0.110048590669581
 30
0.0
 10
-0.3544710294013587
 20
0.1092172493383562
 30
0.0
 10
-0.3501748634091182
 20
0.1081854650285303
 30
0.0
 10
-0.3460094995950011
 20
0.1068413587955938
 30
0.0
 10
-0.3419504961751353
 20
0.1053044874839559
 30
0.0
 10
-0.338023452546142
 20
0.1035344691399444
 30
0.0
 10
-0.3342472104146329
 20
0.1015475895569976
 30
0.0
 10
-0.3306229459063155
 20
0.0993658720945447
 30
0.0
 10
-0.3271794475319983
 20
0.0969920214841339
 30
0.0
 10
-0.3238924849951258
 20
0.0944462271766676
 30
0.0
 10
-0.3208170436141788
 20
0.0916746303540139
 30
0.0
 10
-0.3178658043017694
 20
0.0887534651582001
 30
0.0
 10
-0.3151389902009187
 20
0.0855985901913759
 30
0.0
 10
-0.3134557935476071
 20
0.0833779235020476
 30
0.0
 10
-0.312611882212398
 20
0.0822645385703711
 30
0.0
  0
CIRCLE
  5
108
330
1B
100
AcDbEntity
  8
0
  6
Continuous
 62
     7
370
    25
100
AcDbCircle
 10
1.25
 20
-0.5
 30
0.0
 40
0.1874999999999993
  0
CIRCLE
  5
109
330
1B
100
AcDbEntity
  8
0
  6
Continuous
 62
     7
370
    25
100
AcDbCircle
 10
-1.25
 20
-0.5
 30
0.0
 40
0.1874999999999993
  0
CIRCLE
  5
10A
330
1B
100
AcDbEntity
  8
0
  6
Continuous
 62
     7
370
    25
100
AcDbCircle
 10
-1.25
 20
0.5
 30
0.0
 40
0.1874999999999989
  0
CIRCLE
  5
10B
330
1B
100
AcDbEntity
  8
0
  6
Continuous
 62
     7
370
    25
100
AcDbCircle
 10
1.25
 20
0.5
 30
0.0
 40
0.1874999999999989
  0
SPLINE
  5
11C
330
1B
100
AcDbEntity
  8
0
  6
Continuous
 62
     7
370
    25
100
AcDbSpline
210
0.0
220
0.0
230
1.0
 70
     8
 71
     3
 72
    23
 73
    19
 74
     0
 42
0.000000001
 43
0.00000001
 40
0.0
 40
0.0
 40
0.0
 40
0.0
 40
0.0787802355821394
 40
0.1537206442085843
 40
0.226713530308781
 40
0.2991911660659364
 40
0.3711899968376686
 40
0.4430064143534095
 40
0.5166891732948802
 40
0.593217216623412
 40
0.6338729178078458
 40
0.6769891422899791
 40
0.7228995063258269
 40
0.7719586105061443
 40
0.8242113233348358
 40
0.879378650627202
 40
0.9379481193304179
 40
1.0
 40
1.0
 40
1.0
 40
1.0
 10
-0.1977824858869387
 20
0.0706987892770135
 30
0.0
 10
-0.1978403204581394
 20
0.0688627615364252
 30
0.0
 10
-0.197953170686078
 20
0.0652801958715409
 30
0.0
 10
-0.1990053401222993
 20
0.0600809485719828
 30
0.0
 10
-0.2007288251509904
 20
0.0552309755546426
 30
0.0
 10
-0.2031037577891524
 20
0.0507363835107265
 30
0.0
 10
-0.2061281465967698
 20
0.0466847832996978
 30
0.0
 10
-0.2097629808921775
 20
0.0431261039570253
 30
0.0
 10
-0.214010288431141
 20
0.0401481546424263
 30
0.0
 10
-0.2179641985074867
 20
0.0380830835911861
 30
0.0
 10
-0.2214568835349133
 20
0.0367605281335185
 30
0.0
 10
-0.2243322108100325
 20
0.0358299628241075
 30
0.0
 10
-0.2274687059870333
 20
0.0351109878131988
 30
0.0
 10
-0.2308363175856902
 20
0.0344668881371916
 30
0.0
 10
-0.2344490599278987
 20
0.0339806009556356
 30
0.0
 10
-0.2382982740770801
 20
0.0336244358190469
 30
0.0
 10
-0.242386705243619
 20
0.0334018354765947
 30
0.0
 10
-0.2451953300213018
 20
0.0333686856778175
 30
0.0
 10
-0.2466401857657999
 20
0.0333516322509687
 30
0.0
  0
SPLINE
  5
11D
330
1B
100
AcDbEntity
  8
0
  6
Continuous
 62
     7
370
    25
100
AcDbSpline
210
0.0
220
0.0
230
1.0
 70
     8
 71
     3
 72
    23
 73
    19
 74
     0
 42
0.000000001
 43
0.00000001
 40
0.0
 40
0.0
 40
0.0
 40
0.0
 40
0.0642168426314302
 40
0.1270637656931292
 40
0.1887445383478299
 40
0.2491321028350409
 40
0.3094525327106279
 40
0.3698266762476818
 40
0.4306501418384683
 40
0.4923519318794691
 40
0.5540721062625169
 40
0.6156897837449749
 40
0.6767977025065386
 40
0.7384390482469418
 40
0.8013169100648931
 40
0.8651845117115416
 40
0.9316413244190757
 40
1.0
 40
1.0
 40
1.0
 40
1.0
 10
-0.225551325479105
 20
0.1056720693597916
 30
0.0
 10
-0.2245431906705681
 20
0.1054229841091786
 30
0.0
 10
-0.2225484273055391
 20
0.1049301272724893
 30
0.0
 10
-0.2196763774614488
 20
0.1038884107046294
 30
0.0
 10
-0.2169395930539001
 20
0.1026829136721608
 30
0.0
 10
-0.2143494424900528
 20
0.101267019171449
 30
0.0
 10
-0.2119188995298004
 20
0.099630216822137
 30
0.0
 10
-0.2096229030418212
 20
0.0978007631829578
 30
0.0
 10
-0.2074510344048145
 20
0.095788668467585
 30
0.0
 10
-0.2054911277048004
 20
0.0935432022666928
 30
0.0
 10
-0.2036431335435977
 20
0.0911874341690552
 30
0.0
 10
-0.2020845262010552
 20
0.088640042167434
 30
0.0
 10
-0.2007409640072564
 20
0.085976202501134
 30
0.0
 10
-0.1996712586135497
 20
0.0831688238493435
 30
0.0
 10
-0.1988099210752366
 20
0.0802451320437285
 30
0.0
 10
-0.1982025888165378
 20
0.0771786439836023
 30
0.0
 10
-0.197838368831073
 20
0.0739833300039208
 30
0.0
 10
-0.1978012879037691
 20
0.0718038847759044
 30
0.0
 10
-0.1977824858869386
 20
0.0706987892770135
 30
0.0
  0
SPLINE
  5
11E
330
1B
100
AcDbEntity
  8
0
  6
Continuous
 62
     7
370
    25
100
AcDbSpline
210
0.0
220
0.0
230
1.0
 70
     8
 71
     3
 72
    15
 73
    11
 74
     0
 42
0.000000001
 43
0.00000001
 40
0.0
 40
0.0
 40
0.0
 40
0.0
 40
0.1762577548178006
 40
0.3384344138804758
 40
0.4848220507878367
 40
0.6171575782663319
 40
0.734698360612477
 40
0.8373851838323607
 40
0.926372420929584
 40
1.0
 40
1.0
 40
1.0
 40
1.0
 10
-0.2567705676050893
 20
0.1075490883381885
 30
0.0
 10
-0.2549303656951058
 20
0.1075429629055887
 30
0.0
 10
-0.2513969741829379
 20
0.1075312013964636
 30
0.0
 10
-0.2463350344049994
 20
0.1074656201796074
 30
0.0
 10
-0.241735542397118
 20
0.1072776534194408
 30
0.0
 10
-0.2376009030539235
 20
0.107115898164436
 30
0.0
 10
-0.2339311922280848
 20
0.1068209398446272
 30
0.0
 10
-0.2307151571592678
 20
0.10653902460369
 30
0.0
 10
-0.2279676100135508
 20
0.1061699828407393
 30
0.0
 10
-0.2263043875213233
 20
0.105827249653116
 30
0.0
 10
-0.225551325479105
 20
0.1056720693597916
 30
0.0
  0
SPLINE
  5
12D
330
1B
100
AcDbEntity
  8
0
  6
Continuous
 62
     7
370
    25
100
AcDbSpline
210
0.0
220
0.0
230
1.0
 70
     8
 71
     3
 72
    31
 73
    27
 74
     0
 42
0.000000001
 43
0.00000001
 40
0.0
 40
0.0
 40
0.0
 40
0.0
 40
0.0650632896172791
 40
0.1267731664665229
 40
0.1855157632260791
 40
0.2407646791677152
 40
0.2929797960235983
 40
0.3422503727797676
 40
0.3889192861856606
 40
0.4327756640583105
 40
0.4746284326311181
 40
0.514774690637954
 40
0.5536058934984428
 40
0.591426406431173
 40
0.6280281199460673
 40
0.6638036341103204
 40
0.6989843361316642
 40
0.733591489306706
 40
0.7676284691511404
 40
0.8012083477865922
 40
0.8342638397266241
 40
0.8669806947287765
 40
0.8997197415181609
 40
0.9327019124985387
 40
0.9661758834327498
 40
1.0
 40
1.0
 40
1.0
 40
1.0
 10
0.4081634054920236
 20
0.0385962441023718
 30
0.0
 10
0.4081377525572235
 20
0.0364890036322575
 30
0.0
 10
0.4080877688599205
 20
0.0323831315118313
 30
0.0
 10
0.4078287646564672
 20
0.0263779750031781
 30
0.0
 10
0.4073185823265961
 20
0.0207087607000852
 30
0.0
 10
0.4066803938105025
 20
0.0153618920993482
 30
0.0
 10
0.4057964976304462
 20
0.0103596236413578
 30
0.0
 10
0.4047096800614984
 20
0.0056846453552196
 30
0.0
 10
0.403502974438594
 20
0.0013167685179981
 30
0.0
 10
0.4020134156153734
 20
-0.0027082240650711
 30
0.0
 10
0.4003830726883171
 20
-0.0064464808707715
 30
0.0
 10
0.3986092460672391
 20
-0.0099373134821769
 30
0.0
 10
0.3967088592134722
 20
-0.0132115769735013
 30
0.0
 10
0.394638436181857
 20
-0.0162430630731532
 30
0.0
 10
0.3924316088906592
 20
-0.0190532464224787
 30
0.0
 10
0.3900411447649508
 20
-0.0215925229048226
 30
0.0
 10
0.3875344288160537
 20
-0.0239220769191196
 30
0.0
 10
0.384880396696607
 20
-0.0259949756381021
 30
0.0
 10
0.3821082883803804
 20
-0.0278093380253604
 30
0.0
 10
0.3792752538557784
 20
-0.029431930560314
 30
0.0
 10
0.3763310261649405
 20
-0.0307403043811741
 30
0.0
 10
0.3733423272385819
 20
-0.0318637311913219
 30
0.0
 10
0.3702664073127965
 20
-0.0327220166986504
 30
0.0
 10
0.3671071005927394
 20
-0.0333154755774142
 30
0.0
 10
0.3638804771309802
 20
-0.0337316900835077
 30
0.0
 10
0.3616993131514031
 20
-0.0337634412597008
 30
0.0
 10
0.3606030569658779
 20
-0.0337793994469922
 30
0.0
  0
SPLINE
  5
12E
330
1B
100
AcDbEntity
  8
0
  6
Continuous
 62
     7
370
    25
100
AcDbSpline
210
0.0
220
0.0
230
1.0
 70
     8
 71
     3
 72
    31
 73
    27
 74
     0
 42
0.000000001
 43
0.00000001
 40
0.0
 40
0.0
 40
0.0
 40
0.0
 40
0.0337881161627101
 40
0.0671939323738796
 40
0.0998624108568249
 40
0.1325666121262584
 40
0.1651511732547857
 40
0.1979131873557922
 40
0.2313190035669616
 40
0.2650832782673732
 40
0.2992553087581148
 40
0.3343985665049782
 40
0.3699428235093072
 40
0.4062835607000606
 40
0.4440638196985082
 40
0.4829977068727752
 40
0.5233544466133042
 40
0.5655365896041491
 40
0.6096129240658194
 40
0.6563908113764172
 40
0.705885494936457
 40
0.758324500261731
 40
0.81383178294115
 40
0.8727945590393899
 40
0.9347222295400739
 40
1.0
 40
1.0
 40
1.0
 40
1.0
 10
0.3606030569658779
 20
0.1110823005328181
 30
0.0
 10
0.3616989419455764
 20
0.1110630952109415
 30
0.0
 10
0.3638783123745403
 20
0.1110249018682533
 30
0.0
 10
0.367100374392096
 20
0.1106578175164972
 30
0.0
 10
0.3702479996564503
 20
0.1100487181819723
 30
0.0
 10
0.3733077688967449
 20
0.1091856876865919
 30
0.0
 10
0.3763048156080745
 20
0.1081149917551185
 30
0.0
 10
0.3792156977988483
 20
0.1067729792705056
 30
0.0
 10
0.3820584962886928
 20
0.1052108191388336
 30
0.0
 10
0.3847880351674289
 20
0.1033752334181003
 30
0.0
 10
0.3874342798660934
 20
0.1013286871111412
 30
0.0
 10
0.3899322311642074
 20
0.0990151962133719
 30
0.0
 10
0.3922821164357609
 20
0.0964581206516137
 30
0.0
 10
0.3945134276714394
 20
0.0936848189237944
 30
0.0
 10
0.3965628606320399
 20
0.0906420990484567
 30
0.0
 10
0.3985145705625686
 20
0.0873828821266398
 30
0.0
 10
0.4002615011098781
 20
0.0838501709142852
 30
0.0
 10
0.4019439686365947
 20
0.0801029084008582
 30
0.0
 10
0.4033962122090056
 20
0.076037410022643
 30
0.0
 10
0.404705906904766
 20
0.0716765926794111
 30
0.0
 10
0.4057641340140155
 20
0.0669689475277047
 30
0.0
 10
0.4066456014289027
 20
0.0619391740908894
 30
0.0
 10
0.4073284713480214
 20
0.0565688007349776
 30
0.0
 10
0.4078258194613499
 20
0.0508693394943571
 30
0.0
 10
0.4080885393448673
 20
0.0448370406502325
 30
0.0
 10
0.4081380157703267
 20
0.0407127158794781
 30
0.0
 10
0.4081634054920236
 20
0.0385962441023718
 30
0.0
  0
SPLINE
  5
12F
330
1B
100
AcDbEntity
  8
0
  6
Continuous
 62
     7
370
    25
100
AcDbSpline
210
0.0
220
0.0
230
1.0
 70
     8
 71
     3
 72
    31
 73
    27
 74
     0
 42
0.000000001
 43
0.00000001
 40
0.0
 40
0.0
 40
0.0
 40
0.0
 40
0.0685946222587425
 40
0.1332460424433009
 40
0.1943125864682562
 40
0.2512792231169663
 40
0.3045134392563465
 40
0.3542349066533249
 40
0.4004805887739887
 40
0.4434107549384916
 40
0.484014868616345
 40
0.5232523007732026
 40
0.5610423727283596
 40
0.5979002393643997
 40
0.6335184888561949
 40
0.6683143511696508
 40
0.7024956712863817
 40
0.7366853535134587
 40
0.7702931693607882
 40
0.8034372550192493
 40
0.8359129516660287
 40
0.86846024578929
 40
0.9008465382431824
 40
0.9334665246307078
 40
0.9662575752981233
 40
1.0
 40
1.0
 40
1.0
 40
1.0
 10
0.3145332823343414
 20
0.0385962441023718
 30
0.0
 10
0.314546196435029
 20
0.0408048026745864
 30
0.0
 10
0.3145712822617554
 20
0.0450949595347229
 30
0.0
 10
0.3148503539523945
 20
0.0513463233956205
 30
0.0
 10
0.3153139501064566
 20
0.0572109017025172
 30
0.0
 10
0.3159492797462314
 20
0.062688975168597
 30
0.0
 10
0.3167224285739316
 20
0.067781958023625
 30
0.0
 10
0.3177545343456372
 20
0.0724762398006446
 30
0.0
 10
0.3189282667320528
 20
0.0767935471476156
 30
0.0
 10
0.3202885992442773
 20
0.0807479585049392
 30
0.0
 10
0.3218235515678345
 20
0.0843927499625046
 30
0.0
 10
0.3234941917537423
 20
0.087795316942574
 30
0.0
 10
0.3253668214554578
 20
0.0909505111291794
 30
0.0
 10
0.3273344164525884
 20
0.0939086918543741
 30
0.0
 10
0.3294766239969901
 20
0.0966214357438362
 30
0.0
 10
0.3317324818894016
 20
0.0991270523784239
 30
0.0
 10
0.3341900360731467
 20
0.1013676331053454
 30
0.0
 10
0.3367657450602904
 20
0.1034088261126319
 30
0.0
 10
0.3394829286977594
 20
0.1051981753910549
 30
0.0
 10
0.3422641360262322
 20
0.1067742674625415
 30
0.0
 10
0.3451285102725289
 20
0.1081207189293765
 30
0.0
 10
0.3480838718039435
 20
0.1091793975065237
 30
0.0
 10
0.3511036575476318
 20
0.110053840292847
 30
0.0
 10
0.3541984239528008
 20
0.1106518303576726
 30
0.0
 10
0.3573732808006875
 20
0.1110280865974123
 30
0.0
 10
0.3595162506746304
 20
0.1110640577682862
 30
0.0
 10
0.3606030569658779
 20
0.1110823005328181
 30
0.0
  0
SPLINE
  5
130
330
1B
100
AcDbEntity
  8
0
  6
Continuous
 62
     7
370
    25
100
AcDbSpline
210
0.0
220
0.0
230
1.0
 70
     8
 71
     3
 72
    31
 73
    27
 74
     0
 42
0.000000001
 43
0.00000001
 40
0.0
 40
0.0
 40
0.0
 40
0.0
 40
0.0337871463469909
 40
0.0666216577242938
 40
0.0992848780959724
 40
0.1313611650426513
 40
0.1635851875953433
 40
0.1961039269870678
 40
0.2289022543238166
 40
0.2621580559050073
 40
0.2959912222583165
 40
0.3302178457247997
 40
0.3650598258919538
 40
0.4009507373401078
 40
0.4376203820767375
 40
0.4757075294370918
 40
0.5153806916250483
 40
0.5564135414931646
 40
0.5997648298727314
 40
0.6464241555840872
 40
0.6964314445175667
 40
0.7497815178015576
 40
0.8065733069755324
 40
0.8674355315653995
 40
0.9318867532508741
 40
1.0
 40
1.0
 40
1.0
 40
1.0
 10
0.3606030569658779
 20
-0.0337793994469922
 30
0.0
 10
0.3595162808247261
 20
-0.033761038995858
 30
0.0
 10
0.3573733704008871
 20
-0.0337248357699754
 30
0.0
 10
0.3541980780607513
 20
-0.0333502794121727
 30
0.0
 10
0.3511160920985487
 20
-0.032748094246332
 30
0.0
 10
0.3481122041443122
 20
-0.0319049208569192
 30
0.0
 10
0.3451710027630647
 20
-0.0308728406870201
 30
0.0
 10
0.3423325662805531
 20
-0.0295282074743042
 30
0.0
 10
0.339565334639188
 20
-0.0279796220823371
 30
0.0
 10
0.3368766907014681
 20
-0.0262160228131133
 30
0.0
 10
0.3343171568022624
 20
-0.0241954841072712
 30
0.0
 10
0.3318723298214025
 20
-0.021960669592055
 30
0.0
 10
0.3296036282821518
 20
-0.0194558108795583
 30
0.0
 10
0.3274920497145404
 20
-0.0167204595761049
 30
0.0
 10
0.3254851958485665
 20
-0.0137797807441068
 30
0.0
 10
0.3236391575289109
 20
-0.0105936243249957
 30
0.0
 10
0.3219316435892238
 20
-0.007174623912019
 30
0.0
 10
0.3203708762400689
 20
-0.0035006904208735
 30
0.0
 10
0.3189870705898754
 20
0.0004817870539213
 30
0.0
 10
0.3177647198767486
 20
0.004818368884728
 30
0.0
 10
0.3167995955669036
 20
0.0095473309364619
 30
0.0
 10
0.3159734949632469
 20
0.0146306918461227
 30
0.0
 10
0.3153071806701958
 20
0.0200902954046205
 30
0.0
 10
0.3148522859726221
 20
0.0259291055694588
 30
0.0
 10
0.3145711318373561
 20
0.0321434838736379
 30
0.0
 10
0.3145461290649104
 20
0.0364060734136618
 30
0.0
 10
0.3145332823343414
 20
0.0385962441023718
 30
0.0
  0
SPLINE
  5
131
330
1B
100
AcDbEntity
  8
0
  6
Continuous
 62
     7
370
    25
100
AcDbSpline
210
0.0
220
0.0
230
1.0
 70
     8
 71
     3
 72
    31
 73
    27
 74
     0
 42
0.000000001
 43
0.00000001
 40
0.0
 40
0.0
 40
0.0
 40
0.0
 40
0.0439549089061949
 40
0.0875018747976052
 40
0.1304626267314905
 40
0.1727520205665181
 40
0.2154030673796033
 40
0.2576498297432399
 40
0.3001527489572942
 40
0.343121489502087
 40
0.3859251632064336
 40
0.4276857274028022
 40
0.4688179504865899
 40
0.5094918001549961
 40
0.5498830310733492
 40
0.5899800229668862
 40
0.63040523000684
 40
0.6708686260826384
 40
0.7113839438381759
 40
0.7516272580635844
 40
0.7917755768651915
 40
0.8324589188037423
 40
0.8733190450172882
 40
0.9145429556263492
 40
0.9569235582098846
 40
1.0
 40
1.0
 40
1.0
 40
1.0
 10
-0.373504586129216
 20
0.0969494517543
 30
0.0
 10
-0.3748858183867125
 20
0.0969335477184795
 30
0.0
 10
-0.377635463763519
 20
0.0969018872512923
 30
0.0
 10
-0.3817161123265305
 20
0.0964842051566101
 30
0.0
 10
-0.3857205631584741
 20
0.0958971496430445
 30
0.0
 10
-0.3896462114347982
 20
0.0950260739255859
 30
0.0
 10
-0.3934880601961865
 20
0.0939247897099362
 30
0.0
 10
-0.3972712256318413
 20
0.092608828531838
 30
0.0
 10
-0.4009409342852704
 20
0.0909806852302654
 30
0.0
 10
-0.4045479515377992
 20
0.0891811474366865
 30
0.0
 10
-0.4080038259864334
 20
0.0871485708719892
 30
0.0
 10
-0.4112737097571944
 20
0.0849315097742913
 30
0.0
 10
-0.4143456769981858
 20
0.0825547736939852
 30
0.0
 10
-0.4172221577908308
 20
0.0800094545452528
 30
0.0
 10
-0.4199060927646686
 20
0.0773070151564523
 30
0.0
 10
-0.4223780341349523
 20
0.0744186552513702
 30
0.0
 10
-0.4246294282398886
 20
0.0713536090499036
 30
0.0
 10
-0.4267049016675814
 20
0.0681522937917008
 30
0.0
 10
-0.4285636706972961
 20
0.0648240342785163
 30
0.0
 10
-0.4301199651615043
 20
0.0613565118203076
 30
0.0
 10
-0.4314981195790488
 20
0.0578091061891631
 30
0.0
 10
-0.4325886409430656
 20
0.0541417376526
 30
0.0
 10
-0.4334518108970563
 20
0.0503802114382992
 30
0.0
 10
-0.4340473881912873
 20
0.0465144323851505
 30
0.0
 10
-0.4344603201280711
 20
0.0425524764954951
 30
0.0
 10
-0.4344918231556588
 20
0.0398670704870532
 30
0.0
 10
-0.4345077029271163
 20
0.0385134344415602
 30
0.0
  0
SPLINE
  5
132
330
1B
100
AcDbEntity
  8
0
  6
Continuous
 62
     7
370
    25
100
AcDbSpline
210
0.0
220
0.0
230
1.0
 70
     8
 71
     3
 72
    23
 73
    19
 74
     0
 42
0.000000001
 43
0.00000001
 40
0.0
 40
0.0
 40
0.0
 40
0.0
 40
0.0716681496796057
 40
0.1389132862742052
 40
0.2011845700265596
 40
0.2591244282905456
 40
0.3122550414262358
 40
0.3606815096231102
 40
0.4050861433286449
 40
0.4451016585907113
 40
0.5187777804882605
 40
0.5894615790331977
 40
0.6584622419857172
 40
0.7272832183683671
 40
0.7963224869047191
 40
0.8631748932078812
 40
0.930949380987856
 40
1.0
 40
1.0
 40
1.0
 40
1.0
 10
-0.2467505986468821
 20
0.0472912584875929
 30
0.0
 10
-0.2455726443586203
 20
0.0472907373594764
 30
0.0
 10
-0.2432894334484074
 20
0.0472897272647613
 30
0.0
 10
-0.2399862576684313
 20
0.0474469625499408
 30
0.0
 10
-0.2369106627199434
 20
0.0476258333469083
 30
0.0
 10
-0.2340744126348089
 20
0.0478994296278825
 30
0.0
 10
-0.2314762403778809
 20
0.048252030876928
 30
0.0
 10
-0.2291174445817551
 20
0.0486930932485275
 30
0.0
 10
-0.226994174822041
 20
0.0492069539826569
 30
0.0
 10
-0.2245178544116984
 20
0.050002293581475
 30
0.0
 10
-0.2217526366417408
 20
0.0512623730407372
 30
0.0
 10
-0.2187474610560297
 20
0.0530956603909159
 30
0.0
 10
-0.2161883139004969
 20
0.0554015312242815
 30
0.0
 10
-0.2140261933373099
 20
0.0580382814618566
 30
0.0
 10
-0.212288814145368
 20
0.0609373463767256
 30
0.0
 10
-0.2110639301164492
 20
0.0640639750860244
 30
0.0
 10
-0.210286668608887
 20
0.0673392348501034
 30
0.0
 10
-0.2101949935911931
 20
0.0695903414581639
 30
0.0
 10
-0.2101487285681419
 20
0.070726392497284
 30
0.0
  0
SPLINE
  5
136
330
1B
100
AcDbEntity
  8
0
  6
Continuous
 62
     7
370
    25
100
AcDbSpline
210
0.0
220
0.0
230
1.0
 70
     8
 71
     3
 72
    23
 73
    19
 74
     0
 42
0.000000001
 43
0.00000001
 40
0.0
 40
0.0
 40
0.0
 40
0.0
 40
0.0688142958243096
 40
0.1363648245522147
 40
0.2040193535112466
 40
0.2730637386246114
 40
0.3429133195614896
 40
0.4109654441389575
 40
0.4791687665134468
 40
0.5493080065097825
 40
0.5876515764176498
 40
0.6306466687627904
 40
0.6788787856966486
 40
0.7319342992295832
 40
0.7911114229480473
 40
0.8552831895130775
 40
0.9250859386773845
 40
1.0
 40
1.0
 40
1.0
 40
1.0
 10
-0.2101487285681419
 20
0.070726392497284
 30
0.0
 10
-0.210196056170051
 20
0.0718345253212875
 30
0.0
 10
-0.2102898422075813
 20
0.0740304402298928
 30
0.0
 10
-0.2110555417558774
 20
0.0772452398475154
 30
0.0
 10
-0.2123503992895959
 20
0.0802793717424277
 30
0.0
 10
-0.2140953692866346
 20
0.0831204931987939
 30
0.0
 10
-0.2162213202694107
 20
0.0856994591773132
 30
0.0
 10
-0.2187141475408528
 20
0.0879060400063494
 30
0.0
 10
-0.2215056906569974
 20
0.0897268850724163
 30
0.0
 10
-0.2241147929543156
 20
0.0908904433602849
 30
0.0
 10
-0.2264468485642524
 20
0.0916038234093373
 30
0.0
 10
-0.2284716383296427
 20
0.0921058377326067
 30
0.0
 10
-0.2307594917831616
 20
0.0925091632810296
 30
0.0
 10
-0.2333215177127655
 20
0.0928323152839908
 30
0.0
 10
-0.2361467787672882
 20
0.0931100689945731
 30
0.0
 10
-0.239249560306324
 20
0.0932971468944993
 30
0.0
 10
-0.2426092760646424
 20
0.093407928945917
 30
0.0
 10
-0.2449378954028876
 20
0.0934134048860965
 30
0.0
 10
-0.2461433278009302
 20
0.0934162395596705
 30
0.0
  0
SPLINE
  5
137
330
1B
100
AcDbEntity
  8
0
  6
Continuous
 62
     7
370
    25
100
AcDbSpline
210
0.0
220
0.0
230
1.0
 70
     8
 71
     3
 72
    54
 73
    50
 74
     0
 42
0.000000001
 43
0.00000001
 40
0.0
 40
0.0
 40
0.0
 40
0.0
 40
0.0625000000000011
 40
0.0625000000000011
 40
0.0937500000000016
 40
0.0937500000000016
 40
0.1250000000000021
 40
0.1250000000000021
 40
0.1562500000000027
 40
0.1562500000000027
 40
0.1875000000000032
 40
0.1875000000000032
 40
0.2500000000000037
 40
0.2500000000000037
 40
0.3125000000000042
 40
0.3125000000000042
 40
0.3750000000000047
 40
0.3750000000000047
 40
0.4375000000000053
 40
0.4375000000000053
 40
0.4687500000000053
 40
0.4687500000000053
 40
0.5000000000000053
 40
0.5000000000000053
 40
0.5312500000000053
 40
0.5312500000000053
 40
0.5625000000000053
 40
0.5625000000000053
 40
0.6250000000000051
 40
0.6250000000000051
 40
0.6562500000000049
 40
0.6562500000000049
 40
0.6875000000000047
 40
0.6875000000000047
 40
0.7500000000000036
 40
0.7500000000000036
 40
0.781250000000003
 40
0.781250000000003
 40
0.8125000000000024
 40
0.8125000000000024
 40
0.8437500000000019
 40
0.8437500000000019
 40
0.8750000000000013
 40
0.8750000000000013
 40
0.9375
 40
0.9375
 40
0.96875
 40
0.96875
 40
1.0
 40
1.0
 40
1.0
 40
1.0
 10
1.575000000000001
 20
-0.8593465885608442
 30
0.0
 10
1.590048943932343
 20
-0.8659144861512346
 30
0.0
 10
1.605584769988453
 20
-0.8703799005131692
 30
0.0
 10
1.629561690716073
 20
-0.874058049091391
 30
0.0
 10
1.637682937515695
 20
-0.874764945907708
 30
0.0
 10
1.65363108619044
 20
-0.8751344456839859
 30
0.0
 10
1.661523612107214
 20
-0.8748103191332626
 30
0.0
 10
1.677149627085028
 20
-0.8731901910143506
 30
0.0
 10
1.684932782651311
 20
-0.8718811492383123
 30
0.0
 10
1.700078802526986
 20
-0.8683558017749711
 30
0.0
 10
1.707418631919077
 20
-0.866153185662471
 30
0.0
 10
1.728797333651066
 20
-0.8583147252572605
 30
0.0
 10
1.742321086102864
 20
-0.8513650399130146
 30
0.0
 10
1.766867670029414
 20
-0.8348664885474386
 30
0.0
 10
1.778025223995883
 20
-0.8252873560851369
 30
0.0
 10
1.798078861596661
 20
-0.8034675136594969
 30
0.0
 10
1.806705732766354
 20
-0.791541146586285
 30
0.0
 10
1.821253291732221
 20
-0.7653046074195299
 30
0.0
 10
1.827212259462835
 20
-0.7507562564269379
 30
0.0
 10
1.833274352505611
 20
-0.7278619119209802
 30
0.0
 10
1.834838059741227
 20
-0.7200208356537846
 30
0.0
 10
1.836963175627303
 20
-0.7038549393112926
 30
0.0
 10
1.837494697589058
 20
-0.6957155147457935
 30
0.0
 10
1.837505223133909
 20
-0.6795283248903597
 30
0.0
 10
1.836988652657645
 20
-0.6714476969162968
 30
0.0
 10
1.834895611291652
 20
-0.6553123380454737
 30
0.0
 10
1.833329084411143
 20
-0.6473830904993798
 30
0.0
 10
1.827278148814875
 20
-0.6244176218868731
 30
0.0
 10
1.821337194798486
 20
-0.6098708465822301
 30
0.0
 10
1.810406153719412
 20
-0.5901206731673112
 30
0.0
 10
1.806412747258946
 20
-0.5838353919714563
 30
0.0
 10
1.797732393080331
 20
-0.571800222569095
 30
0.0
 10
1.793018783808777
 20
-0.5660229412416032
 30
0.0
 10
1.777985526521995
 20
-0.5496771125399776
 30
0.0
 10
1.766870966138232
 20
-0.540131902032635
 30
0.0
 10
1.74840604724001
 20
-0.5277267790812628
 30
0.0
 10
1.741905791788756
 20
-0.5238973425583306
 30
0.0
 10
1.72854436374323
 20
-0.5170790886937123
 30
0.0
 10
1.721667446653703
 20
-0.5140729574953316
 30
0.0
 10
1.707502777952304
 20
-0.5088758344748798
 30
0.0
 10
1.700215152691407
 20
-0.5066846749306287
 30
0.0
 10
1.685194208422216
 20
-0.5031711877288377
 30
0.0
 10
1.677390543566215
 20
-0.5018429869880825
 30
0.0
 10
1.653798961106727
 20
-0.4993726725753278
 30
0.0
 10
1.637946432494526
 20
-0.4996922816033894
 30
0.0
 10
1.613995538952917
 20
-0.5033122610501813
 30
0.0
 10
1.605942694977292
 20
-0.5050665676505263
 30
0.0
 10
1.590240820597555
 20
-0.5095903492167436
 30
0.0
 10
1.582541966377648
 20
-0.512361827456834
 30
0.0
 10
1.575000000000001
 20
-0.5156534114391558
 30
0.0
  0
SPLINE
  5
138
330
1B
100
AcDbEntity
  8
0
  6
Continuous
 62
     7
370
    25
100
AcDbSpline
210
0.0
220
0.0
230
1.0
 70
     8
 71
     3
 72
    52
 73
    48
 74
     0
 42
0.000000001
 43
0.00000001
 40
0.0
 40
0.0
 40
0.0
 40
0.0
 40
0.0625000000000006
 40
0.0625000000000006
 40
0.0937500000000002
 40
0.0937500000000002
 40
0.1249999999999999
 40
0.1249999999999999
 40
0.1562499999999995
 40
0.1562499999999995
 40
0.1874999999999992
 40
0.1874999999999992
 40
0.2499999999999994
 40
0.2499999999999994
 40
0.2812499999999998
 40
0.2812499999999998
 40
0.3125000000000001
 40
0.3125000000000001
 40
0.3750000000000003
 40
0.3750000000000003
 40
0.4375000000000005
 40
0.4375000000000005
 40
0.4687500000000007
 40
0.4687500000000007
 40
0.5000000000000008
 40
0.5000000000000008
 40
0.562500000000001
 40
0.562500000000001
 40
0.6250000000000012
 40
0.6250000000000012
 40
0.6875000000000016
 40
0.6875000000000016
 40
0.7187500000000016
 40
0.7187500000000016
 40
0.7500000000000017
 40
0.7500000000000017
 40
0.8125000000000003
 40
0.8125000000000003
 40
0.8437500000000003
 40
0.8437500000000003
 40
0.8750000000000002
 40
0.8750000000000002
 40
0.9062500000000002
 40
0.9062500000000002
 40
0.9375000000000002
 40
0.9375000000000002
 40
1.0
 40
1.0
 40
1.0
 40
1.0
 10
1.575000000000001
 20
-0.1043419857967068
 30
0.0
 10
1.584899307130869
 20
-0.111457511049041
 30
0.0
 10
1.595551849535248
 20
-0.1170190254985917
 30
0.0
 10
1.612616429842696
 20
-0.12309008707736
 30
0.0
 10
1.618480733125927
 20
-0.1247175146537854
 30
0.0
 10
1.630185331457204
 20
-0.1271035072538728
 30
0.0
 10
1.636073378644357
 20
-0.127880801125413
 30
0.0
 10
1.647916261702329
 20
-0.1286200144361976
 30
0.0
 10
1.653915927235325
 20
-0.1285754434899127
 30
0.0
 10
1.66566794701401
 20
-0.1276773064843798
 30
0.0
 10
1.671439067481374
 20
-0.126831716830689
 30
0.0
 10
1.688454480863104
 20
-0.1231591447530883
 30
0.0
 10
1.699472845887099
 20
-0.1191403401189171
 30
0.0
 10
1.714611487317011
 20
-0.1112206769788716
 30
0.0
 10
1.719462764936993
 20
-0.1082577257103209
 30
0.0
 10
1.728785090683749
 20
-0.1016745807693184
 30
0.0
 10
1.733253743570698
 20
-0.0980477234735729
 30
0.0
 10
1.745748624074263
 20
-0.0864500929752491
 30
0.0
 10
1.753018406191004
 20
-0.0776903859470291
 30
0.0
 10
1.76533447458803
 20
-0.0578493479153917
 30
0.0
 10
1.770087683512769
 20
-0.0472398197086219
 30
0.0
 10
1.775047928776518
 20
-0.0301722734160725
 30
0.0
 10
1.77634021482693
 20
-0.0242216909028405
 30
0.0
 10
1.778052164053827
 20
-0.0122956689057256
 30
0.0
 10
1.778485142653318
 20
-0.0063127713304512
 30
0.0
 10
1.77852859259504
 20
0.0116954154947707
 30
0.0
 10
1.776813619783858
 20
0.0239127874913375
 30
0.0
 10
1.770276124377198
 20
0.0467671837199059
 30
0.0
 10
1.76539750821697
 20
0.0577021975116104
 30
0.0
 10
1.753233471777796
 20
0.0773884927173131
 30
0.0
 10
1.745813671548433
 20
0.0863787523035642
 30
0.0
 10
1.733320631562362
 20
0.0979910556241075
 30
0.0
 10
1.728917235596841
 20
0.1015716559042451
 30
0.0
 10
1.719615228695984
 20
0.1081593791170399
 30
0.0
 10
1.71468396648971
 20
0.1111798816096625
 30
0.0
 10
1.699479394112373
 20
0.1191426285616792
 30
0.0
 10
1.688730794407295
 20
0.1230816729122035
 30
0.0
 10
1.67157928218622
 20
0.1268101543288223
 30
0.0
 10
1.665724045975702
 20
0.1276689457472598
 30
0.0
 10
1.654036063836161
 20
0.1285702746313206
 30
0.0
 10
1.648160681446126
 20
0.1286230372157298
 30
0.0
 10
1.636346869146677
 20
0.1279095806155415
 30
0.0
 10
1.630363401760787
 20
0.1271336737046574
 30
0.0
 10
1.618551199745049
 20
0.124737884953108
 30
0.0
 10
1.612773012042895
 20
0.1231354320986189
 30
0.0
 10
1.595820389423772
 20
0.117134763753963
 30
0.0
 10
1.584915960898565
 20
0.1114694816145578
 30
0.0
 10
1.575000000000001
 20
0.1043419857967066
 30
0.0
  0
SPLINE
  5
139
330
1B
100
AcDbEntity
  8
0
  6
Continuous
 62
     7
370
    25
100
AcDbSpline
210
0.0
220
0.0
230
1.0
 70
     8
 71
     3
 72
    54
 73
    50
 74
     0
 42
0.000000001
 43
0.00000001
 40
0.0
 40
0.0
 40
0.0
 40
0.0
 40
0.0625000000000005
 40
0.0625000000000005
 40
0.0937500000000008
 40
0.0937500000000008
 40
0.1250000000000011
 40
0.1250000000000011
 40
0.1562500000000013
 40
0.1562500000000013
 40
0.1875000000000016
 40
0.1875000000000016
 40
0.2500000000000018
 40
0.2500000000000018
 40
0.3125000000000019
 40
0.3125000000000019
 40
0.3750000000000021
 40
0.3750000000000021
 40
0.4375000000000023
 40
0.4375000000000023
 40
0.4687500000000024
 40
0.4687500000000024
 40
0.5000000000000027
 40
0.5000000000000027
 40
0.5312500000000029
 40
0.5312500000000029
 40
0.5625000000000031
 40
0.5625000000000031
 40
0.6250000000000038
 40
0.6250000000000038
 40
0.6562500000000041
 40
0.6562500000000041
 40
0.6875000000000044
 40
0.6875000000000044
 40
0.7500000000000043
 40
0.7500000000000043
 40
0.7812500000000041
 40
0.7812500000000041
 40
0.8125000000000039
 40
0.8125000000000039
 40
0.8437500000000038
 40
0.8437500000000038
 40
0.8750000000000036
 40
0.8750000000000036
 40
0.9375000000000022
 40
0.9375000000000022
 40
0.9687500000000012
 40
0.9687500000000012
 40
1.0
 40
1.0
 40
1.0
 40
1.0
 10
1.575000000000001
 20
0.5156534114391557
 30
0.0
 10
1.590048943932343
 20
0.5090855138487652
 30
0.0
 10
1.605584769988453
 20
0.5046200994868304
 30
0.0
 10
1.629561690716072
 20
0.5009419509086088
 30
0.0
 10
1.637682937515694
 20
0.5002350540922921
 30
0.0
 10
1.65363108619044
 20
0.499865554316014
 30
0.0
 10
1.661523612107214
 20
0.5001896808667377
 30
0.0
 10
1.677149627085028
 20
0.5018098089856494
 30
0.0
 10
1.684932782651311
 20
0.5031188507616878
 30
0.0
 10
1.700078802526986
 20
0.506644198225029
 30
0.0
 10
1.707418631919076
 20
0.508846814337529
 30
0.0
 10
1.728797333651065
 20
0.5166852747427392
 30
0.0
 10
1.742321086102864
 20
0.5236349600869852
 30
0.0
 10
1.766867670029414
 20
0.540133511452561
 30
0.0
 10
1.778025223995883
 20
0.5497126439148631
 30
0.0
 10
1.79807886159666
 20
0.5715324863405031
 30
0.0
 10
1.806705732766353
 20
0.5834588534137153
 30
0.0
 10
1.821253291732221
 20
0.6096953925804698
 30
0.0
 10
1.827212259462836
 20
0.6242437435730617
 30
0.0
 10
1.833274352505612
 20
0.6471380880790195
 30
0.0
 10
1.834838059741227
 20
0.6549791643462153
 30
0.0
 10
1.836963175627304
 20
0.6711450606887069
 30
0.0
 10
1.837494697589058
 20
0.6792844852542066
 30
0.0
 10
1.837505223133909
 20
0.69547167510964
 30
0.0
 10
1.836988652657645
 20
0.703552303083703
 30
0.0
 10
1.834895611291652
 20
0.7196876619545264
 30
0.0
 10
1.833329084411143
 20
0.7276169095006199
 30
0.0
 10
1.827278148814876
 20
0.7505823781131266
 30
0.0
 10
1.821337194798487
 20
0.7651291534177699
 30
0.0
 10
1.810406153719413
 20
0.7848793268326884
 30
0.0
 10
1.806412747258946
 20
0.7911646080285436
 30
0.0
 10
1.797732393080331
 20
0.8031997774309048
 30
0.0
 10
1.793018783808777
 20
0.8089770587583966
 30
0.0
 10
1.777985526521995
 20
0.8253228874600219
 30
0.0
 10
1.766870966138233
 20
0.8348680979673649
 30
0.0
 10
1.74840604724001
 20
0.8472732209187367
 30
0.0
 10
1.741905791788757
 20
0.8511026574416691
 30
0.0
 10
1.72854436374323
 20
0.8579209113062871
 30
0.0
 10
1.721667446653703
 20
0.8609270425046683
 30
0.0
 10
1.707502777952304
 20
0.8661241655251198
 30
0.0
 10
1.700215152691408
 20
0.8683153250693711
 30
0.0
 10
1.685194208422216
 20
0.8718288122711623
 30
0.0
 10
1.677390543566215
 20
0.8731570130119174
 30
0.0
 10
1.653798961106728
 20
0.8756273274246724
 30
0.0
 10
1.637946432494526
 20
0.8753077183966105
 30
0.0
 10
1.613995538952918
 20
0.8716877389498187
 30
0.0
 10
1.605942694977292
 20
0.8699334323494737
 30
0.0
 10
1.590240820597554
 20
0.8654096507832563
 30
0.0
 10
1.582541966377648
 20
0.8626381725431662
 30
0.0
 10
1.575000000000001
 20
0.8593465885608443
 30
0.0
  0
CIRCLE
  5
151
330
1B
100
AcDbEntity
  8
0
  6
Continuous
 62
     7
370
    25
100
AcDbCircle
 10
1.65
 20
0.6875
 30
0.0
 40
0.0980000000000001
  0
CIRCLE
  5
152
330
1B
100
AcDbEntity
  8
0
  6
Continuous
 62
     7
370
    25
100
AcDbCircle
 10
1.65
 20
-0.6875
 30
0.0
 40
0.0980000000000001
  0
CIRCLE
  5
153
330
1B
100
AcDbEntity
  8
0
  6
Continuous
 62
     7
370
    25
100
AcDbCircle
 10
1.65
 20
-0.6875
 30
0.0
 40
0.0795000000000001
  0
CIRCLE
  5
154
330
1B
100
AcDbEntity
  8
0
  6
Continuous
 62
     7
370
    25
100
AcDbCircle
 10
1.65
 20
0.6875
 30
0.0
 40
0.0795000000000003
  0
CIRCLE
  5
155
330
1B
100
AcDbEntity
  8
0
  6
Continuous
 62
     7
370
    25
100
AcDbCircle
 10
-1.25
 20
0.5
 30
0.0
 40
0.097999999999999
  0
CIRCLE
  5
156
330
1B
100
AcDbEntity
  8
0
  6
Continuous
 62
     7
370
    25
100
AcDbCircle
 10
-1.25
 20
-0.5
 30
0.0
 40
0.0979999999999992
  0
CIRCLE
  5
157
330
1B
100
AcDbEntity
  8
0
  6
Continuous
 62
     7
370
    25
100
AcDbCircle
 10
1.25
 20
0.5
 30
0.0
 40
0.0979999999999996
  0
CIRCLE
  5
158
330
1B
100
AcDbEntity
  8
0
  6
Continuous
 62
     7
370
    25
100
AcDbCircle
 10
1.25
 20
-0.5
 30
0.0
 40
0.0979999999999999
  0
LINE
  5
159
330
1B
100
AcDbEntity
  8
0
  6
Continuous
 62
     7
370
    25
100
AcDbLine
 10
-0.1553839396
 20
0.047484481
 30
0.0
 11
-0.131258725
 21
0.0471808456
 31
0.0
  0
LINE
  5
15A
330
1B
100
AcDbEntity
  8
0
  6
Continuous
 62
     7
370
    25
100
AcDbLine
 10
-0.1553839396
 20
0.0934162396
 30
0.0
 11
-0.1553839396
 21
0.047484481
 31
0.0
  0
LINE
  5
15B
330
1B
100
AcDbEntity
  8
0
  6
Continuous
 62
     7
370
    25
100
AcDbLine
 10
-0.1301821994
 20
0.0934162396
 30
0.0
 11
-0.1553839396
 21
0.0934162396
 31
0.0
  0
LINE
  5
15C
330
1B
100
AcDbEntity
  8
0
  6
Continuous
 62
     7
370
    25
100
AcDbLine
 10
0.4629281945
 20
0.0934162396
 30
0.0
 11
0.4417289213
 21
0.0934162396
 31
0.0
  0
LINE
  5
15D
330
1B
100
AcDbEntity
  8
0
  6
Continuous
 62
     7
370
    25
100
AcDbLine
 10
0.4629281945
 20
-0.0302461873
 30
0.0
 11
0.4629281945
 21
0.0934162396
 31
0.0
  0
LINE
  5
15E
330
1B
100
AcDbEntity
  8
0
  6
Continuous
 62
     7
370
    25
100
AcDbLine
 10
0.4752944372
 20
-0.0302461873
 30
0.0
 11
0.4629281945
 21
-0.0302461873
 31
0.0
  0
LINE
  5
15F
330
1B
100
AcDbEntity
  8
0
  6
Continuous
 62
     7
370
    25
100
AcDbLine
 10
0.4752944372
 20
0.1075490883
 30
0.0
 11
0.4752944372
 21
-0.0302461873
 31
0.0
  0
LINE
  5
160
330
1B
100
AcDbEntity
  8
0
  6
Continuous
 62
     7
370
    25
100
AcDbLine
 10
0.4498166649
 20
0.1075490883
 30
0.0
 11
0.4752944372
 21
0.1075490883
 31
0.0
  0
LINE
  5
161
330
1B
100
AcDbEntity
  8
0
  6
Continuous
 62
     7
370
    25
100
AcDbLine
 10
0.4417289213
 20
0.0934162396
 30
0.0
 11
0.4498166649
 21
0.1075490883
 31
0.0
  0
LINE
  5
162
330
1B
100
AcDbEntity
  8
0
  6
Continuous
 62
     7
370
    25
100
AcDbLine
 10
0.3039336458
 20
0.0156855713
 30
0.0
 11
0.2509354628
 21
0.0156855713
 31
0.0
  0
LINE
  5
163
330
1B
100
AcDbEntity
  8
0
  6
Continuous
 62
     7
370
    25
100
AcDbLine
 10
0.3039336458
 20
0.0298184201
 30
0.0
 11
0.3039336458
 21
0.0156855713
 31
0.0
  0
LINE
  5
164
330
1B
100
AcDbEntity
  8
0
  6
Continuous
 62
     7
370
    25
100
AcDbLine
 10
0.2509354628
 20
0.0298184201
 30
0.0
 11
0.3039336458
 21
0.0298184201
 31
0.0
  0
LINE
  5
165
330
1B
100
AcDbEntity
  8
0
  6
Continuous
 62
     7
370
    25
100
AcDbLine
 10
0.2509354628
 20
0.0156855713
 30
0.0
 11
0.2509354628
 21
0.0298184201
 31
0.0
  0
LINE
  5
166
330
1B
100
AcDbEntity
  8
0
  6
Continuous
 62
     7
370
    25
100
AcDbLine
 10
0.1043071568
 20
0.0015527225
 30
0.0
 11
0.0389427312
 21
0.0015527225
 31
0.0
  0
LINE
  5
167
330
1B
100
AcDbEntity
  8
0
  6
Continuous
 62
     7
370
    25
100
AcDbLine
 10
0.1043071568
 20
-0.0302461873
 30
0.0
 11
0.1043071568
 21
0.0015527225
 31
0.0
  0
LINE
  5
168
330
1B
100
AcDbEntity
  8
0
  6
Continuous
 62
     7
370
    25
100
AcDbLine
 10
0.1166733994
 20
-0.0302461873
 30
0.0
 11
0.1043071568
 21
-0.0302461873
 31
0.0
  0
LINE
  5
169
330
1B
100
AcDbEntity
  8
0
  6
Continuous
 62
     7
370
    25
100
AcDbLine
 10
0.1166733994
 20
0.0015527225
 30
0.0
 11
0.1166733994
 21
-0.0302461873
 31
0.0
  0
LINE
  5
16A
330
1B
100
AcDbEntity
  8
0
  6
Continuous
 62
     7
370
    25
100
AcDbLine
 10
0.1325728543
 20
0.0015527225
 30
0.0
 11
0.1166733994
 21
0.0015527225
 31
0.0
  0
LINE
  5
16B
330
1B
100
AcDbEntity
  8
0
  6
Continuous
 62
     7
370
    25
100
AcDbLine
 10
0.1325728543
 20
0.0156855713
 30
0.0
 11
0.1325728543
 21
0.0015527225
 31
0.0
  0
LINE
  5
16C
330
1B
100
AcDbEntity
  8
0
  6
Continuous
 62
     7
370
    25
100
AcDbLine
 10
0.1166733994
 20
0.0156855713
 30
0.0
 11
0.1325728543
 21
0.0156855713
 31
0.0
  0
LINE
  5
16D
330
1B
100
AcDbEntity
  8
0
  6
Continuous
 62
     7
370
    25
100
AcDbLine
 10
0.1166733994
 20
0.1110823005
 30
0.0
 11
0.1166733994
 21
0.0156855713
 31
0.0
  0
LINE
  5
16E
330
1B
100
AcDbEntity
  8
0
  6
Continuous
 62
     7
370
    25
100
AcDbLine
 10
0.1141615064
 20
0.1110823005
 30
0.0
 11
0.1166733994
 21
0.1110823005
 31
0.0
  0
LINE
  5
16F
330
1B
100
AcDbEntity
  8
0
  6
Continuous
 62
     7
370
    25
100
AcDbLine
 10
0.0389427312
 20
0.0015527225
 30
0.0
 11
0.1141615064
 21
0.1110823005
 31
0.0
  0
LINE
  5
170
330
1B
100
AcDbEntity
  8
0
  6
Continuous
 62
     7
370
    25
100
AcDbLine
 10
-0.1553839396
 20
-0.0302461873
 30
0.0
 11
-0.1677501822
 21
-0.0302461873
 31
0.0
  0
LINE
  5
171
330
1B
100
AcDbEntity
  8
0
  6
Continuous
 62
     7
370
    25
100
AcDbLine
 10
-0.1553839396
 20
0.0333516323
 30
0.0
 11
-0.1553839396
 21
-0.0302461873
 31
0.0
  0
LINE
  5
172
330
1B
100
AcDbEntity
  8
0
  6
Continuous
 62
     7
370
    25
100
AcDbLine
 10
-0.1455295899
 20
0.0333516323
 30
0.0
 11
-0.1553839396
 21
0.0333516323
 31
0.0
  0
LINE
  5
173
330
1B
100
AcDbEntity
  8
0
  6
Continuous
 62
     7
370
    25
100
AcDbLine
 10
-0.1677501822
 20
0.1075490883
 30
0.0
 11
-0.1407266296
 21
0.1075490883
 31
0.0
  0
LINE
  5
174
330
1B
100
AcDbEntity
  8
0
  6
Continuous
 62
     7
370
    25
100
AcDbLine
 10
-0.1677501822
 20
-0.0302461873
 30
0.0
 11
-0.1677501822
 21
0.1075490883
 31
0.0
  0
LINE
  5
175
330
1B
100
AcDbEntity
  8
0
  6
Continuous
 62
     7
370
    25
100
AcDbLine
 10
-0.3234323446
 20
0.0033193286
 30
0.0
 11
-0.3126118822
 21
-0.0048788278
 31
0.0
  0
LINE
  5
176
330
1B
100
AcDbEntity
  8
0
  6
Continuous
 62
     7
370
    25
100
AcDbLine
 10
-0.3126118822
 20
0.0822645386
 30
0.0
 11
-0.3234323446
 21
0.0739835725
 31
0.0
  0
LINE
  5
177
330
1B
100
AcDbEntity
  8
0
  6
Continuous
 62
     7
370
    25
100
AcDbLine
 10
1.95
 20
0.94
 30
0.0
 11
-1.95
 21
0.94
 31
0.0
  0
LINE
  5
178
330
1B
100
AcDbEntity
  8
0
  6
Continuous
 62
     7
370
    25
100
AcDbLine
 10
1.575
 20
0.8593465886
 30
0.0
 11
1.575
 21
0.95
 31
0.0
  0
LINE
  5
179
330
1B
100
AcDbEntity
  8
0
  6
Continuous
 62
     7
370
    25
100
AcDbLine
 10
1.575
 20
0.1043419858
 30
0.0
 11
1.575
 21
0.5156534114
 31
0.0
  0
LINE
  5
17A
330
1B
100
AcDbEntity
  8
0
  6
Continuous
 62
     7
370
    25
100
AcDbLine
 10
1.575
 20
-0.5156534114
 30
0.0
 11
1.575
 21
-0.1043419858
 31
0.0
  0
LINE
  5
17B
330
1B
100
AcDbEntity
  8
0
  6
Continuous
 62
     7
370
    25
100
AcDbLine
 10
1.575
 20
-0.95
 30
0.0
 11
1.575
 21
-0.8593465886
 31
0.0
  0
LINE
  5
17C
330
1B
100
AcDbEntity
  8
0
  6
Continuous
 62
     7
370
    25
100
AcDbLine
 10
-1.95
 20
-0.94
 30
0.0
 11
1.95
 21
-0.94
 31
0.0
  0
LINE
  5
17D
330
1B
100
AcDbEntity
  8
0
  6
Continuous
 62
     7
370
    25
100
AcDbLine
 10
-1.575
 20
0.95
 30
0.0
 11
-1.575
 21
-0.95
 31
0.0
  0
LINE
  5
17E
330
1B
100
AcDbEntity
  8
0
  6
Continuous
 62
     7
370
    25
100
AcDbLine
 10
-0.271979942
 20
-0.0302461873
 30
0.0
 11
-0.2843461847
 21
-0.0302461873
 31
0.0
  0
LINE
  5
17F
330
1B
100
AcDbEntity
  8
0
  6
Continuous
 62
     7
370
    25
100
AcDbLine
 10
-0.271979942
 20
0.0333516323
 30
0.0
 11
-0.271979942
 21
-0.0302461873
 31
0.0
  0
LINE
  5
180
330
1B
100
AcDbEntity
  8
0
  6
Continuous
 62
     7
370
    25
100
AcDbLine
 10
-0.2619323698
 20
0.0333516323
 30
0.0
 11
-0.271979942
 21
0.0333516323
 31
0.0
  0
LINE
  5
181
330
1B
100
AcDbEntity
  8
0
  6
Continuous
 62
     7
370
    25
100
AcDbLine
 10
-0.2113080638
 20
-0.0302461873
 30
0.0
 11
-0.2619323698
 21
0.0333516323
 31
0.0
  0
LINE
  5
182
330
1B
100
AcDbEntity
  8
0
  6
Continuous
 62
     7
370
    25
100
AcDbLine
 10
-0.1960158798
 20
-0.0302461873
 30
0.0
 11
-0.2113080638
 21
-0.0302461873
 31
0.0
  0
LINE
  5
183
330
1B
100
AcDbEntity
  8
0
  6
Continuous
 62
     7
370
    25
100
AcDbLine
 10
-0.2466401858
 20
0.0333516323
 30
0.0
 11
-0.1960158798
 21
-0.0302461873
 31
0.0
  0
LINE
  5
184
330
1B
100
AcDbEntity
  8
0
  6
Continuous
 62
     7
370
    25
100
AcDbLine
 10
-0.2843461847
 20
0.1075490883
 30
0.0
 11
-0.2567705676
 21
0.1075490883
 31
0.0
  0
LINE
  5
185
330
1B
100
AcDbEntity
  8
0
  6
Continuous
 62
     7
370
    25
100
AcDbLine
 10
-0.2843461847
 20
-0.0302461873
 30
0.0
 11
-0.2843461847
 21
0.1075490883
 31
0.0
  0
LINE
  5
186
330
1B
100
AcDbEntity
  8
0
  6
Continuous
 62
     7
370
    25
100
AcDbLine
 10
-0.0246550884
 20
0.0934162396
 30
0.0
 11
-0.0458543615
 21
0.0934162396
 31
0.0
  0
LINE
  5
187
330
1B
100
AcDbEntity
  8
0
  6
Continuous
 62
     7
370
    25
100
AcDbLine
 10
-0.0246550884
 20
-0.0302461873
 30
0.0
 11
-0.0246550884
 21
0.0934162396
 31
0.0
  0
LINE
  5
188
330
1B
100
AcDbEntity
  8
0
  6
Continuous
 62
     7
370
    25
100
AcDbLine
 10
-0.0122888457
 20
-0.0302461873
 30
0.0
 11
-0.0246550884
 21
-0.0302461873
 31
0.0
  0
LINE
  5
189
330
1B
100
AcDbEntity
  8
0
  6
Continuous
 62
     7
370
    25
100
AcDbLine
 10
-0.0122888457
 20
0.1075490883
 30
0.0
 11
-0.0122888457
 21
-0.0302461873
 31
0.0
  0
LINE
  5
18A
330
1B
100
AcDbEntity
  8
0
  6
Continuous
 62
     7
370
    25
100
AcDbLine
 10
-0.037766618
 20
0.1075490883
 30
0.0
 11
-0.0122888457
 21
0.1075490883
 31
0.0
  0
LINE
  5
18B
330
1B
100
AcDbEntity
  8
0
  6
Continuous
 62
     7
370
    25
100
AcDbLine
 10
-0.0458543615
 20
0.0934162396
 30
0.0
 11
-0.037766618
 21
0.1075490883
 31
0.0
  0
LINE
  5
18C
330
1B
100
AcDbEntity
  8
0
  6
Continuous
 62
     7
370
    25
100
AcDbLine
 10
0.1873376433
 20
0.0934162396
 30
0.0
 11
0.1661383702
 21
0.0934162396
 31
0.0
  0
LINE
  5
18D
330
1B
100
AcDbEntity
  8
0
  6
Continuous
 62
     7
370
    25
100
AcDbLine
 10
0.1873376433
 20
-0.0302461873
 30
0.0
 11
0.1873376433
 21
0.0934162396
 31
0.0
  0
LINE
  5
18E
330
1B
100
AcDbEntity
  8
0
  6
Continuous
 62
     7
370
    25
100
AcDbLine
 10
0.199703886
 20
-0.0302461873
 30
0.0
 11
0.1873376433
 21
-0.0302461873
 31
0.0
  0
LINE
  5
18F
330
1B
100
AcDbEntity
  8
0
  6
Continuous
 62
     7
370
    25
100
AcDbLine
 10
0.199703886
 20
0.1075490883
 30
0.0
 11
0.199703886
 21
-0.0302461873
 31
0.0
  0
LINE
  5
190
330
1B
100
AcDbEntity
  8
0
  6
Continuous
 62
     7
370
    25
100
AcDbLine
 10
0.1742261137
 20
0.1075490883
 30
0.0
 11
0.199703886
 21
0.1075490883
 31
0.0
  0
LINE
  5
191
330
1B
100
AcDbEntity
  8
0
  6
Continuous
 62
     7
370
    25
100
AcDbLine
 10
0.1661383702
 20
0.0934162396
 30
0.0
 11
0.1742261137
 21
0.1075490883
 31
0.0
  0
LINE
  5
192
330
1B
100
AcDbEntity
  8
0
  6
Continuous
 62
     7
370
    25
100
AcDbLine
 10
-0.271979942
 20
0.047484481
 30
0.0
 11
-0.2467505986
 21
0.0472912585
 31
0.0
  0
LINE
  5
193
330
1B
100
AcDbEntity
  8
0
  6
Continuous
 62
     7
370
    25
100
AcDbLine
 10
-0.271979942
 20
0.0934162396
 30
0.0
 11
-0.271979942
 21
0.047484481
 31
0.0
  0
LINE
  5
194
330
1B
100
AcDbEntity
  8
0
  6
Continuous
 62
     7
370
    25
100
AcDbLine
 10
-0.2461433278
 20
0.0934162396
 30
0.0
 11
-0.271979942
 21
0.0934162396
 31
0.0
  0
LINE
  5
195
330
1B
100
AcDbEntity
  8
0
  6
Continuous
 62
     7
370
    25
100
AcDbLine
 10
1.95
 20
0.94
 30
0.0
 11
1.95
 21
-0.94
 31
0.0
  0
LINE
  5
196
330
1B
100
AcDbEntity
  8
0
  6
Continuous
 62
     7
370
    25
100
AcDbLine
 10
1.94
 20
-0.95
 30
0.0
 11
-1.94
 21
-0.95
 31
0.0
  0
LINE
  5
197
330
1B
100
AcDbEntity
  8
0
  6
Continuous
 62
     7
370
    25
100
AcDbLine
 10
0.1043071568
 20
0.0156855713
 30
0.0
 11
0.1043071568
 21
0.0755293528
 31
0.0
  0
LINE
  5
198
330
1B
100
AcDbEntity
  8
0
  6
Continuous
 62
     7
370
    25
100
AcDbLine
 10
0.063233565
 20
0.0156855713
 30
0.0
 11
0.1043071568
 21
0.0156855713
 31
0.0
  0
LINE
  5
199
330
1B
100
AcDbEntity
  8
0
  6
Continuous
 62
     7
370
    25
100
AcDbLine
 10
0.1043071568
 20
0.0755293528
 30
0.0
 11
0.063233565
 21
0.0156855713
 31
0.0
  0
LINE
  5
19A
330
1B
100
AcDbEntity
  8
0
  6
Continuous
 62
     7
370
    25
100
AcDbLine
 10
-1.94
 20
0.95
 30
0.0
 11
1.94
 21
0.95
 31
0.0
  0
LINE
  5
19B
330
1B
100
AcDbEntity
  8
0
  6
Continuous
 62
     7
370
    25
100
AcDbLine
 10
-1.95
 20
-0.94
 30
0.0
 11
-1.95
 21
0.94
 31
0.0
  0
ARC
  5
19C
330
1B
100
AcDbEntity
  8
0
  6
Continuous
 62
     7
370
    25
100
AcDbCircle
 10
1.65
 20
0.6875
 30
0.0
 40
0.1874999999999998
100
AcDbArc
 50
113.5781784782
 51
246.4218215218
  0
ARC
  5
19D
330
1B
100
AcDbEntity
  8
0
  6
Continuous
 62
     7
370
    25
100
AcDbCircle
 10
1.65
 20
0.0
 30
0.0
 40
0.1284999999999996
100
AcDbArc
 50
125.7082112342
 51
234.2917887658
  0
ARC
  5
19E
330
1B
100
AcDbEntity
  8
0
  6
Continuous
 62
     7
370
    25
100
AcDbCircle
 10
1.65
 20
-0.6875
 30
0.0
 40
0.1874999999999999
100
AcDbArc
 50
113.5781784782
 51
246.4218215218
  0
ARC
  5
19F
330
1B
100
AcDbEntity
  8
0
  6
Continuous
 62
     7
370
    25
100
AcDbCircle
 10
-1.94
 20
-0.94
 30
0.0
 40
0.01
100
AcDbArc
 50
180.0
 51
270.0
  0
ARC
  5
1A0
330
1B
100
AcDbEntity
  8
0
  6
Continuous
 62
     7
370
    25
100
AcDbCircle
 10
1.94
 20
-0.94
 30
0.0
 40
0.0100000000000007
100
AcDbArc
 50
270.0
 51
360.0
  0
ARC
  5
1A1
330
1B
100
AcDbEntity
  8
0
  6
Continuous
 62
     7
370
    25
100
AcDbCircle
 10
-1.94
 20
0.94
 30
0.0
 40
0.0099999999999996
100
AcDbArc
 50
90.0
 51
180.0
  0
ARC
  5
1A2
330
1B
100
AcDbEntity
  8
0
  6
Continuous
 62
     7
370
    25
100
AcDbCircle
 10
1.94
 20
0.94
 30
0.0
 40
0.01
100
AcDbArc
 50
0.0
 51
90.0
  0
VIEWPORT
  5
242
330
1B
100
AcDbEntity
  8
0
100
AcDbViewport
 10
0.0
 20
0.0
 30
0.0
 40
8.4
 41
6.4
 68
     1
 69
     1
 12
0.0
 22
0.0
 13
0.0
 23
0.0
 14
0.5
 24
0.5
 15
0.5
 25
0.5
 16
0.0
 26
0.0
 36
1.0
 17
0.0
 27
0.0
 37
0.0
 42
50.0
 43
0.0
 44
0.0
 45
4.335
 50
0.0
 51
0.0
 72
   100
 90
   557152
  1

281
     0
 71
     1
 74
     0
110
0.0
120
0.0
130
0.0
111
1.0
121
0.0
131
0.0
112
0.0
122
1.0
132
0.0
 79
     0
146
0.0
  0
ENDBLK
  5
1D
330
1B
100
AcDbEntity
  8
0
100
AcDbBlockEnd
  0
BLOCK
  5
24
330
23
100
AcDbEntity
  8
0
100
AcDbBlockBegin
  2
*Paper_Space1
 70
     0
 10
0.0
 20
0.0
 30
0.0
  3
*Paper_Space1
  1

  0
SPLINE
  5
1BD
330
23
100
AcDbEntity
  8
0
  6
Continuous
 62
     7
370
    25
100
AcDbSpline
210
0.0
220
0.0
230
1.0
 70
     8
 71
     3
 72
    54
 73
    50
 74
     0
 42
0.000000001
 43
0.00000001
 40
0.0
 40
0.0
 40
0.0
 40
0.0
 40
0.0625000000000011
 40
0.0625000000000011
 40
0.0937500000000016
 40
0.0937500000000016
 40
0.1250000000000021
 40
0.1250000000000021
 40
0.1562500000000027
 40
0.1562500000000027
 40
0.1875000000000032
 40
0.1875000000000032
 40
0.2500000000000037
 40
0.2500000000000037
 40
0.3125000000000042
 40
0.3125000000000042
 40
0.3750000000000047
 40
0.3750000000000047
 40
0.4375000000000053
 40
0.4375000000000053
 40
0.4687500000000053
 40
0.4687500000000053
 40
0.5000000000000053
 40
0.5000000000000053
 40
0.5312500000000053
 40
0.5312500000000053
 40
0.5625000000000053
 40
0.5625000000000053
 40
0.6250000000000051
 40
0.6250000000000051
 40
0.6562500000000049
 40
0.6562500000000049
 40
0.6875000000000047
 40
0.6875000000000047
 40
0.7500000000000036
 40
0.7500000000000036
 40
0.781250000000003
 40
0.781250000000003
 40
0.8125000000000024
 40
0.8125000000000024
 40
0.8437500000000019
 40
0.8437500000000019
 40
0.8750000000000013
 40
0.8750000000000013
 40
0.9375
 40
0.9375
 40
0.96875
 40
0.96875
 40
1.0
 40
1.0
 40
1.0
 40
1.0
 10
-2.125
 20
-0.8593465885608442
 30
0.0
 10
-2.125
 20
-0.8659144861512346
 30
0.0
 10
-2.12409769027152
 20
-0.8703799005131692
 30
0.0
 10
-2.121096886825579
 20
-0.874058049091391
 30
0.0
 10
-2.119813163228866
 20
-0.874764945907708
 30
0.0
 10
-2.116753430300859
 20
-0.8751344456839859
 30
0.0
 10
-2.114971001193657
 20
-0.8748103191332626
 30
0.0
 10
-2.110909435801795
 20
-0.8731901910143506
 30
0.0
 10
-2.108613131351852
 20
-0.8718811492383123
 30
0.0
 10
-2.103615451921797
 20
-0.8683558017749711
 30
0.0
 10
-2.100926276451083
 20
-0.866153185662471
 30
0.0
 10
-2.092355316147403
 20
-0.8583147252572605
 30
0.0
 10
-2.085893019518195
 20
-0.8513650399130146
 30
0.0
 10
-2.072501571489468
 20
-0.8348664885474386
 30
0.0
 10
-2.065522129777483
 20
-0.8252873560851369
 30
0.0
 10
-2.051677439439272
 20
-0.8034675136594969
 30
0.0
 10
-2.045002614406747
 20
-0.791541146586285
 30
0.0
 10
-2.032972446387724
 20
-0.7653046074195299
 30
0.0
 10
-2.027569121200592
 20
-0.7507562564269379
 30
0.0
 10
-2.021895235439427
 20
-0.7278619119209802
 30
0.0
 10
-2.020391144365651
 20
-0.7200208356537846
 30
0.0
 10
-2.01833278379041
 20
-0.7038549393112926
 30
0.0
 10
-2.017808763471132
 20
-0.6957155147457935
 30
0.0
 10
-2.017798446376606
 20
-0.6795283248903597
 30
0.0
 10
-2.018307788179903
 20
-0.6714476969162968
 30
0.0
 10
-2.020335707132258
 20
-0.6553123380454737
 30
0.0
 10
-2.021843188702723
 20
-0.6473830904993798
 30
0.0
 10
-2.027509055739798
 20
-0.6244176218868731
 30
0.0
 10
-2.032900061094062
 20
-0.6098708465822301
 30
0.0
 10
-2.041944014013106
 20
-0.5901206731673112
 30
0.0
 10
-2.045131975684202
 20
-0.5838353919714563
 30
0.0
 10
-2.051736679470531
 20
-0.571800222569095
 30
0.0
 10
-2.05517188950766
 20
-0.5660229412416032
 30
0.0
 10
-2.065547405280286
 20
-0.5496771125399776
 30
0.0
 10
-2.072501389594041
 20
-0.540131902032635
 30
0.0
 10
-2.082572542860685
 20
-0.5277267790812628
 30
0.0
 10
-2.085889946438053
 20
-0.5238973425583306
 30
0.0
 10
-2.09220421945598
 20
-0.5170790886937123
 30
0.0
 10
-2.095212814173124
 20
-0.5140729574953316
 30
0.0
 10
-2.10089348927013
 20
-0.5088758344748798
 30
0.0
 10
-2.103565746794586
 20
-0.5066846749306287
 30
0.0
 10
-2.108531460544465
 20
-0.5031711877288377
 30
0.0
 10
-2.11084236562404
 20
-0.5018429869880825
 30
0.0
 10
-2.116987559315373
 20
-0.4993726725753278
 30
0.0
 10
-2.12002941136859
 20
-0.4996922816033894
 30
0.0
 10
-2.123053752966197
 20
-0.5033122610501813
 30
0.0
 10
-2.123803988008608
 20
-0.5050665676505263
 30
0.0
 10
-2.124772716737905
 20
-0.5095903492167436
 30
0.0
 10
-2.125
 20
-0.512361827456834
 30
0.0
 10
-2.125
 20
-0.5156534114391558
 30
0.0
  0
SPLINE
  5
1BF
330
23
100
AcDbEntity
  8
0
  6
Continuous
 62
     7
370
    25
100
AcDbSpline
210
0.0
220
0.0
230
1.0
 70
     8
 71
     3
 72
    52
 73
    48
 74
     0
 42
0.000000001
 43
0.00000001
 40
0.0
 40
0.0
 40
0.0
 40
0.0
 40
0.0625000000000006
 40
0.0625000000000006
 40
0.0937500000000002
 40
0.0937500000000002
 40
0.1249999999999999
 40
0.1249999999999999
 40
0.1562499999999995
 40
0.1562499999999995
 40
0.1874999999999992
 40
0.1874999999999992
 40
0.2499999999999994
 40
0.2499999999999994
 40
0.2812499999999998
 40
0.2812499999999998
 40
0.3125000000000001
 40
0.3125000000000001
 40
0.3750000000000003
 40
0.3750000000000003
 40
0.4375000000000005
 40
0.4375000000000005
 40
0.4687500000000007
 40
0.4687500000000007
 40
0.5000000000000008
 40
0.5000000000000008
 40
0.562500000000001
 40
0.562500000000001
 40
0.6250000000000012
 40
0.6250000000000012
 40
0.6875000000000016
 40
0.6875000000000016
 40
0.7187500000000016
 40
0.7187500000000016
 40
0.7500000000000017
 40
0.7500000000000017
 40
0.8125000000000003
 40
0.8125000000000003
 40
0.8437500000000003
 40
0.8437500000000003
 40
0.8750000000000002
 40
0.8750000000000002
 40
0.9062500000000002
 40
0.9062500000000002
 40
0.9375000000000002
 40
0.9375000000000002
 40
1.0
 40
1.0
 40
1.0
 40
1.0
 10
-2.125
 20
-0.1043419857967068
 30
0.0
 10
-2.125
 20
-0.111457511049041
 30
0.0
 10
-2.124610449281733
 20
-0.1170190254985917
 30
0.0
 10
-2.12315224240715
 20
-0.12309008707736
 30
0.0
 10
-2.122517487420372
 20
-0.1247175146537854
 30
0.0
 10
-2.120964192044345
 20
-0.1271035072538728
 30
0.0
 10
-2.120042243402304
 20
-0.127880801125413
 30
0.0
 10
-2.117891883928697
 20
-0.1286200144361976
 30
0.0
 10
-2.116651966185825
 20
-0.1285754434899127
 30
0.0
 10
-2.113924046009064
 20
-0.1276773064843798
 30
0.0
 10
-2.112435169150499
 20
-0.126831716830689
 30
0.0
 10
-2.107619998136837
 20
-0.1231591447530883
 30
0.0
 10
-2.103904538006554
 20
-0.1191403401189171
 30
0.0
 10
-2.098084559346358
 20
-0.1112206769788716
 30
0.0
 10
-2.096094376005694
 20
-0.1082577257103209
 30
0.0
 10
-2.092054021229692
 20
-0.1016745807693184
 30
0.0
 10
-2.090003095621014
 20
-0.0980477234735729
 30
0.0
 10
-2.083998977424776
 20
-0.0864500929752491
 30
0.0
 10
-2.080127889704786
 20
-0.0776903859470291
 30
0.0
 10
-2.073183793354523
 20
-0.0578493479153917
 30
0.0
 10
-2.070282658325596
 20
-0.0472398197086219
 30
0.0
 10
-2.067190199348669
 20
-0.0301722734160725
 30
0.0
 10
-2.066367114142103
 20
-0.0242216909028405
 30
0.0
 10
-2.065271076520212
 20
-0.0122956689057256
 30
0.0
 10
-2.064990153840851
 20
-0.0063127713304512
 30
0.0
 10
-2.064962082139388
 20
0.0116954154947707
 30
0.0
 10
-2.066087186318958
 20
0.0239127874913375
 30
0.0
 10
-2.070167271490264
 20
0.0467671837199059
 30
0.0
 10
-2.073144801235042
 20
0.0577021975116104
 30
0.0
 10
-2.08001000475516
 20
0.0773884927173131
 30
0.0
 10
-2.083965701969985
 20
0.0863787523035642
 30
0.0
 10
-2.089971951404429
 20
0.0979910556241075
 30
0.0
 10
-2.09199442829458
 20
0.1015716559042451
 30
0.0
 10
-2.096030547824203
 20
0.1081593791170399
 30
0.0
 10
-2.098055851496446
 20
0.1111798816096625
 30
0.0
 10
-2.103903695180305
 20
0.1191426285616792
 30
0.0
 10
-2.107535399734357
 20
0.1230816729122035
 30
0.0
 10
-2.112398615018498
 20
0.1268101543288223
 30
0.0
 10
-2.113909527100244
 20
0.1276689457472598
 30
0.0
 10
-2.116625554272763
 20
0.1285702746313206
 30
0.0
 10
-2.117843126590454
 20
0.1286230372157298
 30
0.0
 10
-2.119996773952696
 20
0.1279095806155415
 30
0.0
 10
-2.120938530286777
 20
0.1271336737046574
 30
0.0
 10
-2.122510124032364
 20
0.124737884953108
 30
0.0
 10
-2.123135857262849
 20
0.1231354320986189
 30
0.0
 10
-2.124593359578809
 20
0.117134763753963
 30
0.0
 10
-2.125
 20
0.1114694816145578
 30
0.0
 10
-2.125
 20
0.1043419857967066
 30
0.0
  0
SPLINE
  5
1C1
330
23
100
AcDbEntity
  8
0
  6
Continuous
 62
     7
370
    25
100
AcDbSpline
210
0.0
220
0.0
230
1.0
 70
     8
 71
     3
 72
    54
 73
    50
 74
     0
 42
0.000000001
 43
0.00000001
 40
0.0
 40
0.0
 40
0.0
 40
0.0
 40
0.0625000000000005
 40
0.0625000000000005
 40
0.0937500000000008
 40
0.0937500000000008
 40
0.1250000000000011
 40
0.1250000000000011
 40
0.1562500000000013
 40
0.1562500000000013
 40
0.1875000000000016
 40
0.1875000000000016
 40
0.2500000000000018
 40
0.2500000000000018
 40
0.3125000000000019
 40
0.3125000000000019
 40
0.3750000000000021
 40
0.3750000000000021
 40
0.4375000000000023
 40
0.4375000000000023
 40
0.4687500000000024
 40
0.4687500000000024
 40
0.5000000000000027
 40
0.5000000000000027
 40
0.5312500000000029
 40
0.5312500000000029
 40
0.5625000000000031
 40
0.5625000000000031
 40
0.6250000000000038
 40
0.6250000000000038
 40
0.6562500000000041
 40
0.6562500000000041
 40
0.6875000000000044
 40
0.6875000000000044
 40
0.7500000000000043
 40
0.7500000000000043
 40
0.7812500000000041
 40
0.7812500000000041
 40
0.8125000000000039
 40
0.8125000000000039
 40
0.8437500000000038
 40
0.8437500000000038
 40
0.8750000000000036
 40
0.8750000000000036
 40
0.9375000000000022
 40
0.9375000000000022
 40
0.9687500000000012
 40
0.9687500000000012
 40
1.0
 40
1.0
 40
1.0
 40
1.0
 10
-2.125
 20
0.5156534114391557
 30
0.0
 10
-2.125
 20
0.5090855138487652
 30
0.0
 10
-2.12409769027152
 20
0.5046200994868304
 30
0.0
 10
-2.121096886825578
 20
0.5009419509086088
 30
0.0
 10
-2.119813163228864
 20
0.5002350540922921
 30
0.0
 10
-2.116753430300859
 20
0.499865554316014
 30
0.0
 10
-2.114971001193657
 20
0.5001896808667377
 30
0.0
 10
-2.110909435801794
 20
0.5018098089856494
 30
0.0
 10
-2.108613131351852
 20
0.5031188507616878
 30
0.0
 10
-2.103615451921797
 20
0.506644198225029
 30
0.0
 10
-2.100926276451082
 20
0.508846814337529
 30
0.0
 10
-2.092355316147403
 20
0.5166852747427392
 30
0.0
 10
-2.085893019518195
 20
0.5236349600869852
 30
0.0
 10
-2.072501571489468
 20
0.540133511452561
 30
0.0
 10
-2.065522129777484
 20
0.5497126439148631
 30
0.0
 10
-2.051677439439272
 20
0.5715324863405031
 30
0.0
 10
-2.045002614406746
 20
0.5834588534137153
 30
0.0
 10
-2.032972446387725
 20
0.6096953925804698
 30
0.0
 10
-2.027569121200592
 20
0.6242437435730617
 30
0.0
 10
-2.021895235439427
 20
0.6471380880790195
 30
0.0
 10
-2.020391144365652
 20
0.6549791643462153
 30
0.0
 10
-2.01833278379041
 20
0.6711450606887069
 30
0.0
 10
-2.017808763471132
 20
0.6792844852542066
 30
0.0
 10
-2.017798446376607
 20
0.69547167510964
 30
0.0
 10
-2.018307788179902
 20
0.703552303083703
 30
0.0
 10
-2.020335707132259
 20
0.7196876619545264
 30
0.0
 10
-2.021843188702723
 20
0.7276169095006199
 30
0.0
 10
-2.027509055739798
 20
0.7505823781131266
 30
0.0
 10
-2.032900061094062
 20
0.7651291534177699
 30
0.0
 10
-2.041944014013108
 20
0.7848793268326884
 30
0.0
 10
-2.045131975684202
 20
0.7911646080285436
 30
0.0
 10
-2.051736679470532
 20
0.8031997774309048
 30
0.0
 10
-2.05517188950766
 20
0.8089770587583966
 30
0.0
 10
-2.065547405280285
 20
0.8253228874600219
 30
0.0
 10
-2.072501389594041
 20
0.8348680979673649
 30
0.0
 10
-2.082572542860684
 20
0.8472732209187367
 30
0.0
 10
-2.085889946438053
 20
0.8511026574416691
 30
0.0
 10
-2.092204219455979
 20
0.8579209113062871
 30
0.0
 10
-2.095212814173123
 20
0.8609270425046683
 30
0.0
 10
-2.100893489270131
 20
0.8661241655251198
 30
0.0
 10
-2.103565746794587
 20
0.8683153250693711
 30
0.0
 10
-2.108531460544464
 20
0.8718288122711623
 30
0.0
 10
-2.11084236562404
 20
0.8731570130119174
 30
0.0
 10
-2.116987559315374
 20
0.8756273274246724
 30
0.0
 10
-2.12002941136859
 20
0.8753077183966105
 30
0.0
 10
-2.123053752966197
 20
0.8716877389498187
 30
0.0
 10
-2.123803988008608
 20
0.8699334323494737
 30
0.0
 10
-2.124772716737905
 20
0.8654096507832563
 30
0.0
 10
-2.125
 20
0.8626381725431662
 30
0.0
 10
-2.125
 20
0.8593465885608443
 30
0.0
  0
SPLINE
  5
1D9
330
23
100
AcDbEntity
  8
0
  6
Continuous
 62
     7
370
    25
100
AcDbSpline
210
0.0
220
0.0
230
1.0
 70
     8
 71
     3
 72
    15
 73
    11
 74
     0
 42
0.000000001
 43
0.00000001
 40
0.0
 40
0.0
 40
0.0
 40
0.0
 40
0.0994009457419289
 40
0.1988398915941502
 40
0.2977890549690592
 40
0.3968103281268711
 40
0.5284293358096699
 40
0.6602222548054695
 40
0.842234942158143
 40
1.0
 40
1.0
 40
1.0
 40
1.0
 10
-1.291018867771872
 20
0.5
 30
0.0
 10
-1.290706104913139
 20
0.4915229531797589
 30
0.0
 10
-1.290080459629174
 20
0.47456561883858
 30
0.0
 10
-1.285298568644734
 20
0.4499937120425555
 30
0.0
 10
-1.277897911843593
 20
0.4270245216824415
 30
0.0
 10
-1.26699516806865
 20
0.4037590687490508
 30
0.0
 10
-1.252048823143728
 20
0.381396003870476
 30
0.0
 10
-1.23052973086951
 20
0.3586526279546
 30
0.0
 10
-1.204793895565631
 20
0.3397454129646203
 30
0.0
 10
-1.184182488517903
 20
0.3313430269134299
 30
0.0
 10
-1.17461223304627
 20
0.3274416444947056
 30
0.0
  0
SPLINE
  5
1DA
330
23
100
AcDbEntity
  8
0
  6
Continuous
 62
     7
370
    25
100
AcDbSpline
210
0.0
220
0.0
230
1.0
 70
     8
 71
     3
 72
    15
 73
    11
 74
     0
 42
0.000000001
 43
0.00000001
 40
0.0
 40
0.0
 40
0.0
 40
0.0
 40
0.1673568243127386
 40
0.3402492280421039
 40
0.4692949652463845
 40
0.598182539894696
 40
0.7028117299000048
 40
0.8073522430938485
 40
0.9036922205871175
 40
0.9999999999999999
 40
0.9999999999999999
 40
0.9999999999999999
 40
0.9999999999999999
 10
-1.175362252506519
 20
0.6725867126537216
 30
0.0
 10
-1.185412938095411
 20
0.668281837908326
 30
0.0
 10
-1.205846750860192
 20
0.6595296981915635
 30
0.0
 10
-1.231263603732584
 20
0.6406183975601466
 30
0.0
 10
-1.251970491935176
 20
0.6186377521180088
 30
0.0
 10
-1.266909347428216
 20
0.596410951737454
 30
0.0
 10
-1.278082489516199
 20
0.5726453653735804
 30
0.0
 10
-1.285551406836659
 20
0.5490439648929529
 30
0.0
 10
-1.290145411328555
 20
0.5245551926444842
 30
0.0
 10
-1.290727748066947
 20
0.5081841521597802
 30
0.0
 10
-1.291018867771872
 20
0.5000000000000001
 30
0.0
  0
SPLINE
  5
1DB
330
23
100
AcDbEntity
  8
0
  6
Continuous
 62
     7
370
    25
100
AcDbSpline
210
0.0
220
0.0
230
1.0
 70
     8
 71
     3
 72
    15
 73
    11
 74
     0
 42
0.000000001
 43
0.00000001
 40
0.0
 40
0.0
 40
0.0
 40
0.0
 40
0.0994009457419291
 40
0.1988398915941507
 40
0.2977890549690601
 40
0.3968103281268722
 40
0.5284293358096727
 40
0.6602222548054724
 40
0.8422349421581463
 40
1.0
 40
1.0
 40
1.0
 40
1.0
 10
-1.291018867771872
 20
-0.5000000000000001
 30
0.0
 10
-1.290706104913139
 20
-0.5084770468202412
 30
0.0
 10
-1.290080459629174
 20
-0.52543438116142
 30
0.0
 10
-1.285298568644734
 20
-0.5500062879574441
 30
0.0
 10
-1.277897911843593
 20
-0.5729754783175586
 30
0.0
 10
-1.26699516806865
 20
-0.5962409312509493
 30
0.0
 10
-1.252048823143727
 20
-0.6186039961295239
 30
0.0
 10
-1.23052973086951
 20
-0.6413473720454
 30
0.0
 10
-1.204793895565631
 20
-0.6602545870353795
 30
0.0
 10
-1.184182488517903
 20
-0.6686569730865701
 30
0.0
 10
-1.17461223304627
 20
-0.6725583555052942
 30
0.0
  0
SPLINE
  5
1DC
330
23
100
AcDbEntity
  8
0
  6
Continuous
 62
     7
370
    25
100
AcDbSpline
210
0.0
220
0.0
230
1.0
 70
     8
 71
     3
 72
    15
 73
    11
 74
     0
 42
0.000000001
 43
0.00000001
 40
0.0
 40
0.0
 40
0.0
 40
0.0
 40
0.167356824312741
 40
0.3402492280421059
 40
0.4692949652463863
 40
0.5981825398946985
 40
0.7028117299000065
 40
0.8073522430938499
 40
0.9036922205871177
 40
1.0
 40
1.0
 40
1.0
 40
1.0
 10
-1.175362252506519
 20
-0.3274132873462783
 30
0.0
 10
-1.185412938095412
 20
-0.331718162091674
 30
0.0
 10
-1.205846750860192
 20
-0.3404703018084366
 30
0.0
 10
-1.231263603732584
 20
-0.3593816024398536
 30
0.0
 10
-1.251970491935177
 20
-0.3813622478819917
 30
0.0
 10
-1.266909347428217
 20
-0.4035890482625463
 30
0.0
 10
-1.278082489516199
 20
-0.4273546346264201
 30
0.0
 10
-1.285551406836659
 20
-0.4509560351070472
 30
0.0
 10
-1.290145411328555
 20
-0.4754448073555158
 30
0.0
 10
-1.290727748066947
 20
-0.4918158478402198
 30
0.0
 10
-1.291018867771872
 20
-0.4999999999999998
 30
0.0
  0
LINE
  5
1E6
330
23
100
AcDbEntity
  8
0
  6
Continuous
 62
     7
370
    25
100
AcDbLine
 10
-2.125
 20
-0.94
 30
0.0
 11
-1.3
 21
-0.94
 31
0.0
  0
LINE
  5
1E7
330
23
100
AcDbEntity
  8
0
  6
Continuous
 62
     7
370
    25
100
AcDbLine
 10
2.125
 20
0.94
 30
0.0
 11
-1.175
 21
0.94
 31
0.0
  0
LINE
  5
1E8
330
23
100
AcDbEntity
  8
0
  6
Continuous
 62
     7
370
    25
100
AcDbLine
 10
1.1065891026
 20
-0.95
 30
0.0
 11
1.1065891026
 21
0.95
 31
0.0
  0
LINE
  5
1E9
330
23
100
AcDbEntity
  8
0
  6
Continuous
 62
     7
370
    25
100
AcDbLine
 10
-1.175
 20
-0.94
 30
0.0
 11
2.125
 21
-0.94
 31
0.0
  0
LINE
  5
1EA
330
23
100
AcDbEntity
  8
0
  6
Continuous
 62
     7
370
    25
100
AcDbLine
 10
-1.175
 20
-0.94
 30
0.0
 11
-1.175
 21
0.94
 31
0.0
  0
LINE
  5
1EB
330
23
100
AcDbEntity
  8
0
  6
Continuous
 62
     7
370
    25
100
AcDbLine
 10
-1.75
 20
0.95
 30
0.0
 11
-1.75
 21
-0.95
 31
0.0
  0
LINE
  5
1EC
330
23
100
AcDbEntity
  8
0
  6
Continuous
 62
     7
370
    25
100
AcDbLine
 10
-1.3
 20
0.94
 30
0.0
 11
-2.125
 21
0.94
 31
0.0
  0
LINE
  5
1ED
330
23
100
AcDbEntity
  8
0
  6
Continuous
 62
     7
370
    25
100
AcDbLine
 10
2.115
 20
-0.95
 30
0.0
 11
-2.115
 21
-0.95
 31
0.0
  0
LINE
  5
1EE
330
23
100
AcDbEntity
  8
0
  6
Continuous
 62
     7
370
    25
100
AcDbLine
 10
-1.3
 20
-0.94
 30
0.0
 11
-1.3
 21
0.94
 31
0.0
  0
LINE
  5
1EF
330
23
100
AcDbEntity
  8
0
  6
Continuous
 62
     7
370
    25
100
AcDbLine
 10
-2.115
 20
0.95
 30
0.0
 11
2.115
 21
0.95
 31
0.0
  0
LINE
  5
1F0
330
23
100
AcDbEntity
  8
0
  6
Continuous
 62
     7
370
    25
100
AcDbLine
 10
-2.125
 20
-0.94
 30
0.0
 11
-2.125
 21
0.94
 31
0.0
  0
LINE
  5
1F1
330
23
100
AcDbEntity
  8
0
  6
Continuous
 62
     7
370
    25
100
AcDbLine
 10
1.4291980875
 20
0.94
 30
0.0
 11
1.4291980875
 21
-0.94
 31
0.0
  0
LINE
  5
1F2
330
23
100
AcDbEntity
  8
0
  6
Continuous
 62
     7
370
    25
100
AcDbLine
 10
1.7647114317
 20
0.95
 30
0.0
 11
1.7647114317
 21
-0.95
 31
0.0
  0
LINE
  5
1F3
330
23
100
AcDbEntity
  8
0
  6
Continuous
 62
     7
370
    25
100
AcDbLine
 10
-1.175
 20
0.875
 30
0.0
 11
-1.3
 21
0.875
 31
0.0
  0
LINE
  5
1F4
330
23
100
AcDbEntity
  8
0
  6
Continuous
 62
     7
370
    25
100
AcDbLine
 10
-1.3
 20
-0.875
 30
0.0
 11
-1.175
 21
-0.875
 31
0.0
  0
LINE
  5
1F5
330
23
100
AcDbEntity
  8
0
  6
Continuous
 62
     7
370
    25
100
AcDbLine
 10
2.125
 20
-0.94
 30
0.0
 11
2.125
 21
0.94
 31
0.0
  0
LINE
  5
1F6
330
23
100
AcDbEntity
  8
0
  6
Continuous
 62
     8
370
    25
100
AcDbLine
 10
-1.1743969262
 20
0.9434202014
 30
0.0
 11
-1.3006030738
 21
0.9434202014
 31
0.0
  0
LINE
  5
1F7
330
23
100
AcDbEntity
  8
0
  6
Continuous
 62
     8
370
    25
100
AcDbLine
 10
-1.3006030738
 20
-0.9434202014
 30
0.0
 11
-1.1743969262
 21
-0.9434202014
 31
0.0
  0
ARC
  5
1F8
330
23
100
AcDbEntity
  8
0
  6
Continuous
 62
     7
370
    25
100
AcDbCircle
 10
-2.115
 20
-0.94
 30
0.0
 40
0.0100000000000008
100
AcDbArc
 50
180.0
 51
270.0
  0
ARC
  5
1F9
330
23
100
AcDbEntity
  8
0
  6
Continuous
 62
     7
370
    25
100
AcDbCircle
 10
-2.115
 20
0.94
 30
0.0
 40
0.0099999999999999
100
AcDbArc
 50
90.0
 51
180.0
  0
ARC
  5
1FA
330
23
100
AcDbEntity
  8
0
  6
Continuous
 62
     7
370
    25
100
AcDbCircle
 10
-1.165
 20
-0.94
 30
0.0
 40
0.0100000000000003
100
AcDbArc
 50
180.0
 51
270.0
  0
ARC
  5
1FB
330
23
100
AcDbEntity
  8
0
  6
Continuous
 62
     7
370
    25
100
AcDbCircle
 10
-1.31
 20
0.94
 30
0.0
 40
0.0099999999999999
100
AcDbArc
 50
360.0
 51
90.0
  0
ARC
  5
1FC
330
23
100
AcDbEntity
  8
0
  6
Continuous
 62
     7
370
    25
100
AcDbCircle
 10
-1.31
 20
-0.94
 30
0.0
 40
0.0099999999999999
100
AcDbArc
 50
270.0
 51
0.0
  0
ARC
  5
1FD
330
23
100
AcDbEntity
  8
0
  6
Continuous
 62
     7
370
    25
100
AcDbCircle
 10
-1.165
 20
0.94
 30
0.0
 40
0.01
100
AcDbArc
 50
90.0
 51
180.0
  0
ARC
  5
1FE
330
23
100
AcDbEntity
  8
0
  6
Continuous
 62
     7
370
    25
100
AcDbCircle
 10
1.4198399131
 20
-0.9406497501
 30
0.0
 40
0.0093807037699516
100
AcDbArc
 50
274.6180507211
 51
3.9717457153
  0
ARC
  5
1FF
330
23
100
AcDbEntity
  8
0
  6
Continuous
 62
     7
370
    25
100
AcDbCircle
 10
1.4198399131
 20
0.9406497501
 30
0.0
 40
0.0093807037699512
100
AcDbArc
 50
356.0282542847
 51
85.3819492789
  0
ARC
  5
200
330
23
100
AcDbEntity
  8
0
  6
Continuous
 62
     7
370
    25
100
AcDbCircle
 10
2.115
 20
-0.94
 30
0.0
 40
0.0099999999999998
100
AcDbArc
 50
270.0
 51
0.0
  0
ARC
  5
201
330
23
100
AcDbEntity
  8
0
  6
Continuous
 62
     7
370
    25
100
AcDbCircle
 10
2.115
 20
0.94
 30
0.0
 40
0.0100000000000002
100
AcDbArc
 50
360.0
 51
90.0
  0
VIEWPORT
  5
244
330
23
100
AcDbEntity
  8
0
100
AcDbViewport
 10
0.0
 20
0.0
 30
0.0
 40
8.4
 41
6.4
 68
     1
 69
     1
 12
0.0
 22
0.0
 13
0.0
 23
0.0
 14
0.5
 24
0.5
 15
0.5
 25
0.5
 16
0.0
 26
0.0
 36
1.0
 17
0.0
 27
0.0
 37
0.0
 42
50.0
 43
0.0
 44
0.0
 45
4.335
 50
0.0
 51
0.0
 72
   100
 90
   557152
  1

281
     0
 71
     1
 74
     0
110
0.0
120
0.0
130
0.0
111
1.0
121
0.0
131
0.0
112
0.0
122
1.0
132
0.0
 79
     0
146
0.0
  0
ENDBLK
  5
25
330
23
100
AcDbEntity
  8
0
100
AcDbBlockEnd
  0
ENDSEC
  0
SECTION
  2
ENTITIES
  0
SPLINE
  5
8E
330
1F
100
AcDbEntity
  8
0
  6
Continuous
 62
     7
370
    25
100
AcDbSpline
210
0.0
220
0.0
230
1.0
 70
     8
 71
     3
 72
    10
 73
     6
 74
     0
 42
0.000000001
 43
0.00000001
 40
0.0
 40
0.0
 40
0.0
 40
0.0
 40
0.5
 40
0.5
 40
1.0
 40
1.0
 40
1.0
 40
1.0
 10
1.088876724189103
 20
-1.300603073792141
 30
0.0
 10
1.089162571512563
 20
-1.301332344203849
 30
0.0
 10
1.089686022128201
 20
-1.302668063569701
 30
0.0
 10
1.091000122988692
 20
-1.306025189382986
 30
0.0
 10
1.091782698295963
 20
-1.308026211200433
 30
0.0
 10
1.092553766979129
 20
-1.31
 30
0.0
  0
SPLINE
  5
8F
330
1F
100
AcDbEntity
  8
0
  6
Continuous
 62
     7
370
    25
100
AcDbSpline
210
0.0
220
0.0
230
1.0
 70
     8
 71
     3
 72
     8
 73
     4
 74
     0
 42
0.000000001
 43
0.00000001
 40
0.0
 40
0.0
 40
0.0
 40
0.0
 40
1.0
 40
1.0
 40
1.0
 40
1.0
 10
1.088876724189103
 20
-1.300603073792141
 30
0.0
 10
1.088711079498438
 20
-1.300180471368243
 30
0.0
 10
1.088283059611918
 20
-1.300000000000062
 30
0.0
 10
1.087695798393606
 20
-1.299999999999999
 30
0.0
  0
SPLINE
  5
92
330
1F
100
AcDbEntity
  8
0
  6
Continuous
 62
     7
370
    25
100
AcDbSpline
210
0.0
220
0.0
230
1.0
 70
     8
 71
     3
 72
     8
 73
     4
 74
     0
 42
0.000000001
 43
0.00000001
 40
0.0
 40
0.0
 40
0.0
 40
0.0
 40
1.0
 40
1.0
 40
1.0
 40
1.0
 10
1.208804016308034
 20
-1.175
 30
0.0
 10
1.209407541224244
 20
-1.175
 30
0.0
 10
1.210145378511995
 20
-1.174775923610867
 30
0.0
 10
1.210975308937087
 20
-1.174396926208182
 30
0.0
  0
SPLINE
  5
93
330
1F
100
AcDbEntity
  8
0
  6
Continuous
 62
     7
370
    25
100
AcDbSpline
210
0.0
220
0.0
230
1.0
 70
     8
 71
     3
 72
    12
 73
     8
 74
     0
 42
0.000000001
 43
0.00000001
 40
0.0
 40
0.0
 40
0.0
 40
0.0
 40
0.250000000000001
 40
0.250000000000001
 40
0.500000000000002
 40
0.500000000000002
 40
1.0
 40
1.0
 40
1.0
 40
1.0
 10
1.210975308937313
 20
-1.174396926207859
 30
0.0
 10
1.212199843625595
 20
-1.17383772816869
 30
0.0
 10
1.213796188322697
 20
-1.173107758868371
 30
0.0
 10
1.217119099154763
 20
-1.171584696190381
 30
0.0
 10
1.218840407495353
 20
-1.170794154005182
 30
0.0
 10
1.224104159584268
 20
-1.168371305443125
 30
0.0
 10
1.227770039760834
 20
-1.16667660292981
 30
0.0
 10
1.2313808240103
 20
-1.165
 30
0.0
  0
SPLINE
  5
A5
330
1F
100
AcDbEntity
  8
0
  6
Continuous
 62
     7
370
    25
100
AcDbSpline
210
0.0
220
0.0
230
1.0
 70
    24
 71
     3
 72
     8
 73
     4
 74
     0
 42
0.000000001
 43
0.00000001
 40
0.0
 40
0.0
 40
0.0
 40
0.0
 40
1.0
 40
1.0
 40
1.0
 40
1.0
 10
1.208804016308034
 20
-1.175
 30
0.0
 10
1.198345604913273
 20
-1.175
 30
0.0
 10
1.187841255988643
 20
-1.175
 30
0.0
 10
1.177287666630378
 20
-1.175
 30
0.0
  0
SPLINE
  5
A7
330
1F
100
AcDbEntity
  8
0
  6
Continuous
 62
     7
370
    25
100
AcDbSpline
210
0.0
220
0.0
230
1.0
 70
    24
 71
     3
 72
     8
 73
     4
 74
     0
 42
0.000000001
 43
0.00000001
 40
0.0
 40
0.0
 40
0.0
 40
0.0
 40
1.0
 40
1.0
 40
1.0
 40
1.0
 10
1.052559380747709
 20
-1.3
 30
0.0
 10
1.064353930113068
 20
-1.3
 30
0.0
 10
1.076065531939824
 20
-1.3
 30
0.0
 10
1.087695798393605
 20
-1.3
 30
0.0
  0
LINE
  5
A8
330
1F
100
AcDbEntity
  8
0
  6
Continuous
 62
     7
370
    25
100
AcDbLine
 10
-1.575
 20
-2.115
 30
0.0
 11
-1.575
 21
-2.125
 31
0.0
  0
LINE
  5
A9
330
1F
100
AcDbEntity
  8
0
  6
Continuous
 62
     7
370
    25
100
AcDbLine
 10
-1.94
 20
-1.75
 30
0.0
 11
-1.95
 21
-1.75
 31
0.0
  0
LINE
  5
AA
330
1F
100
AcDbEntity
  8
0
  6
Continuous
 62
     7
370
    25
100
AcDbLine
 10
1.575
 20
2.125
 30
0.0
 11
1.575
 21
1.7647114317
 31
0.0
  0
LINE
  5
AB
330
1F
100
AcDbEntity
  8
0
  6
Continuous
 62
     7
370
    25
100
AcDbLine
 10
1.575
 20
1.7647114317
 30
0.0
 11
1.565
 21
1.7647114317
 31
0.0
  0
LINE
  5
AC
330
1F
100
AcDbEntity
  8
0
  6
Continuous
 62
     7
370
    25
100
AcDbLine
 10
1.565
 20
1.7647114317
 30
0.0
 11
1.565
 21
2.115
 31
0.0
  0
LINE
  5
AD
330
1F
100
AcDbEntity
  8
0
  6
Continuous
 62
     7
370
    25
100
AcDbLine
 10
1.575
 20
2.125
 30
0.0
 11
1.565
 21
2.115
 31
0.0
  0
LINE
  5
AE
330
1F
100
AcDbEntity
  8
0
  6
Continuous
 62
     7
370
    25
100
AcDbLine
 10
-1.575
 20
-2.115
 30
0.0
 11
1.575
 21
-2.115
 31
0.0
  0
LINE
  5
AF
330
1F
100
AcDbEntity
  8
0
  6
Continuous
 62
     7
370
    25
100
AcDbLine
 10
1.575
 20
-2.115
 30
0.0
 11
1.575
 21
-2.125
 31
0.0
  0
LINE
  5
B0
330
1F
100
AcDbEntity
  8
0
  6
Continuous
 62
     7
370
    25
100
AcDbLine
 10
1.575
 20
-2.125
 30
0.0
 11
-1.575
 21
-2.125
 31
0.0
  0
LINE
  5
B1
330
1F
100
AcDbEntity
  8
0
  6
Continuous
 62
     7
370
    25
100
AcDbLine
 10
1.7661764706
 20
1.4291980875
 30
0.0
 11
1.7610784314
 21
1.4205951812
 31
0.0
  0
LINE
  5
B2
330
1F
100
AcDbEntity
  8
0
  6
Continuous
 62
     7
370
    25
100
AcDbLine
 10
1.94
 20
-1.75
 30
0.0
 11
1.95
 21
-1.75
 31
0.0
  0
LINE
  5
B3
330
1F
100
AcDbEntity
  8
0
  6
Continuous
 62
     7
370
    25
100
AcDbLine
 10
1.95
 20
1.1065891026
 30
0.0
 11
1.94
 21
1.1065891026
 31
0.0
  0
LINE
  5
B4
330
1F
100
AcDbEntity
  8
0
  6
Continuous
 62
     7
370
    25
100
AcDbLine
 10
1.94
 20
-1.75
 30
0.0
 11
1.94
 21
-1.31
 31
0.0
  0
LINE
  5
B5
330
1F
100
AcDbEntity
  8
0
  6
Continuous
 62
     7
370
    25
100
AcDbLine
 10
1.94
 20
-1.31
 30
0.0
 11
1.95
 21
-1.3
 31
0.0
  0
LINE
  5
B6
330
1F
100
AcDbEntity
  8
0
  6
Continuous
 62
     7
370
    25
100
AcDbLine
 10
1.95
 20
-1.3
 30
0.0
 11
1.95
 21
-1.75
 31
0.0
  0
LINE
  5
B7
330
1F
100
AcDbEntity
  8
0
  6
Continuous
 62
     7
370
    25
100
AcDbLine
 10
1.95
 20
1.1065891026
 30
0.0
 11
1.95
 21
-1.175
 31
0.0
  0
LINE
  5
B8
330
1F
100
AcDbEntity
  8
0
  6
Continuous
 62
     7
370
    25
100
AcDbLine
 10
1.95
 20
-1.175
 30
0.0
 11
1.94
 21
-1.165
 31
0.0
  0
LINE
  5
B9
330
1F
100
AcDbEntity
  8
0
  6
Continuous
 62
     7
370
    25
100
AcDbLine
 10
1.94
 20
-1.165
 30
0.0
 11
1.94
 21
1.1065891026
 31
0.0
  0
LINE
  5
BA
330
1F
100
AcDbEntity
  8
0
  6
Continuous
 62
     7
370
    25
100
AcDbLine
 10
1.94
 20
-1.31
 30
0.0
 11
1.092553767
 21
-1.31
 31
0.0
  0
LINE
  5
BB
330
1F
100
AcDbEntity
  8
0
  6
Continuous
 62
     7
370
    25
100
AcDbLine
 10
1.0876957984
 20
-1.3
 30
0.0
 11
1.95
 21
-1.3
 31
0.0
  0
LINE
  5
BC
330
1F
100
AcDbEntity
  8
0
  6
Continuous
 62
     7
370
    25
100
AcDbLine
 10
1.95
 20
-1.175
 30
0.0
 11
1.2088040163
 21
-1.175
 31
0.0
  0
LINE
  5
BD
330
1F
100
AcDbEntity
  8
0
  6
Continuous
 62
     7
370
    25
100
AcDbLine
 10
1.231380824
 20
-1.165
 30
0.0
 11
1.94
 21
-1.165
 31
0.0
  0
LINE
  5
BE
330
1F
100
AcDbEntity
  8
0
  6
Continuous
 62
     7
370
    25
100
AcDbLine
 10
-1.94
 20
1.1065891026
 30
0.0
 11
-1.94
 21
-1.75
 31
0.0
  0
LINE
  5
BF
330
1F
100
AcDbEntity
  8
0
  6
Continuous
 62
     7
370
    25
100
AcDbLine
 10
-1.565
 20
2.115
 30
0.0
 11
-1.565
 21
1.7647114317
 31
0.0
  0
LINE
  5
C0
330
1F
100
AcDbEntity
  8
0
  6
Continuous
 62
     7
370
    25
100
AcDbLine
 10
1.565
 20
2.115
 30
0.0
 11
-1.565
 21
2.115
 31
0.0
  0
LINE
  5
C1
330
1F
100
AcDbEntity
  8
0
  6
Continuous
 62
     7
370
    25
100
AcDbLine
 10
-1.7610784314
 20
1.4205951812
 30
0.0
 11
-1.7661764706
 21
1.4291980875
 31
0.0
  0
LINE
  5
C2
330
1F
100
AcDbEntity
  8
0
  6
Continuous
 62
     7
370
    25
100
AcDbLine
 10
-1.575
 20
1.7647114317
 30
0.0
 11
-1.565
 21
1.7647114317
 31
0.0
  0
LINE
  5
C3
330
1F
100
AcDbEntity
  8
0
  6
Continuous
 62
     7
370
    25
100
AcDbLine
 10
-1.94
 20
1.1065891026
 30
0.0
 11
-1.95
 21
1.1065891026
 31
0.0
  0
LINE
  5
C4
330
1F
100
AcDbEntity
  8
0
  6
Continuous
 62
     7
370
    25
100
AcDbLine
 10
-1.575
 20
1.7647114317
 30
0.0
 11
-1.575
 21
2.125
 31
0.0
  0
LINE
  5
C5
330
1F
100
AcDbEntity
  8
0
  6
Continuous
 62
     7
370
    25
100
AcDbLine
 10
-1.575
 20
2.125
 30
0.0
 11
-1.565
 21
2.115
 31
0.0
  0
LINE
  5
C6
330
1F
100
AcDbEntity
  8
0
  6
Continuous
 62
     7
370
    25
100
AcDbLine
 10
-1.95
 20
-1.75
 30
0.0
 11
-1.95
 21
1.1065891026
 31
0.0
  0
LINE
  5
C7
330
1F
100
AcDbEntity
  8
0
  6
Continuous
 62
     7
370
    25
100
AcDbLine
 10
-1.575
 20
2.125
 30
0.0
 11
1.575
 21
2.125
 31
0.0
  0
ARC
  5
C8
330
1F
100
AcDbEntity
  8
0
  6
Continuous
 62
     7
370
    25
100
AcDbCircle
 10
-1.575
 20
-1.75
 30
0.0
 40
0.3649999999999991
100
AcDbArc
 50
180.0
 51
270.0
  0
ARC
  5
C9
330
1F
100
AcDbEntity
  8
0
  6
Continuous
 62
     7
370
    25
100
AcDbCircle
 10
-1.575
 20
-1.75
 30
0.0
 40
0.3750000000000004
100
AcDbArc
 50
180.0
 51
270.0
  0
ARC
  5
CA
330
1F
100
AcDbEntity
  8
0
  6
Continuous
 62
     7
370
    25
100
AcDbCircle
 10
1.965
 20
1.7647114317
 30
0.0
 40
0.3900000000000018
100
AcDbArc
 50
180.0
 51
239.3492300599
  0
ARC
  5
CB
330
1F
100
AcDbEntity
  8
0
  6
Continuous
 62
     7
370
    25
100
AcDbCircle
 10
1.965
 20
1.7647114317
 30
0.0
 40
0.400000000000001
100
AcDbArc
 50
180.0
 51
239.3492300599
  0
ARC
  5
CC
330
1F
100
AcDbEntity
  8
0
  6
Continuous
 62
     7
370
    25
100
AcDbCircle
 10
1.575
 20
-1.75
 30
0.0
 40
0.3649999999999989
100
AcDbArc
 50
270.0
 51
0.0
  0
ARC
  5
CD
330
1F
100
AcDbEntity
  8
0
  6
Continuous
 62
     7
370
    25
100
AcDbCircle
 10
1.575
 20
-1.75
 30
0.0
 40
0.3750000000000011
100
AcDbArc
 50
270.0
 51
0.0
  0
ARC
  5
CE
330
1F
100
AcDbEntity
  8
0
  6
Continuous
 62
     7
370
    25
100
AcDbCircle
 10
1.575
 20
1.1065891026
 30
0.0
 40
0.375
100
AcDbArc
 50
0.0
 51
59.3492300599
  0
ARC
  5
CF
330
1F
100
AcDbEntity
  8
0
  6
Continuous
 62
     7
370
    25
100
AcDbCircle
 10
1.575
 20
1.1065891026
 30
0.0
 40
0.364999999999998
100
AcDbArc
 50
0.0
 51
59.3492300599
  0
ARC
  5
D0
330
1F
100
AcDbEntity
  8
0
  6
Continuous
 62
     7
370
    25
100
AcDbCircle
 10
0.0
 20
-0.125
 30
0.0
 40
1.611799842952064
100
AcDbArc
 50
319.8162221793
 51
312.6756320694
  0
ARC
  5
D1
330
1F
100
AcDbEntity
  8
0
  6
Continuous
 62
     7
370
    25
100
AcDbCircle
 10
0.0
 20
-0.125
 30
0.0
 40
1.602402916744205
100
AcDbArc
 50
319.088724364
 51
312.8067252175
  0
ARC
  5
D2
330
1F
100
AcDbEntity
  8
0
  6
Continuous
 62
     7
370
    25
100
AcDbCircle
 10
-1.575
 20
1.1065891026
 30
0.0
 40
0.3650000000000002
100
AcDbArc
 50
120.6507699401
 51
180.0
  0
ARC
  5
D3
330
1F
100
AcDbEntity
  8
0
  6
Continuous
 62
     7
370
    25
100
AcDbCircle
 10
-1.965
 20
1.7647114317
 30
0.0
 40
0.4000000000000021
100
AcDbArc
 50
300.6507699401
 51
0.0
  0
ARC
  5
D4
330
1F
100
AcDbEntity
  8
0
  6
Continuous
 62
     7
370
    25
100
AcDbCircle
 10
-1.965
 20
1.7647114317
 30
0.0
 40
0.3899999999999997
100
AcDbArc
 50
300.6507699401
 51
0.0
  0
ARC
  5
D5
330
1F
100
AcDbEntity
  8
0
  6
Continuous
 62
     7
370
    25
100
AcDbCircle
 10
-1.575
 20
1.1065891026
 30
0.0
 40
0.3750000000000003
100
AcDbArc
 50
120.6507699401
 51
180.0
  0
ARC
  5
D6
330
1F
100
AcDbEntity
  8
0
  6
Continuous
 62
     7
370
    25
100
AcDbCircle
 10
0.0
 20
-0.125
 30
0.0
 40
1.577499999999994
100
AcDbArc
 50
318.2708490903
 51
311.8538309471
  0
CIRCLE
  5
206
330
202
100
AcDbEntity
 67
     1
  8
0
  6
Continuous
 62
     7
370
    25
100
AcDbCircle
 10
-1.25
 20
0.5
 30
0.0
 40
0.097999999999999
  0
CIRCLE
  5
207
330
202
100
AcDbEntity
 67
     1
  8
0
  6
Continuous
 62
     7
370
    25
100
AcDbCircle
 10
1.25
 20
0.5
 30
0.0
 40
0.0979999999999988
  0
CIRCLE
  5
20C
330
202
100
AcDbEntity
 67
     1
  8
0
  6
Continuous
 62
     7
370
    25
100
AcDbCircle
 10
1.25
 20
-0.5
 30
0.0
 40
0.0979999999999988
  0
CIRCLE
  5
20D
330
202
100
AcDbEntity
 67
     1
  8
0
  6
Continuous
 62
     7
370
    25
100
AcDbCircle
 10
-1.25
 20
-0.5
 30
0.0
 40
0.097999999999999
  0
LWPOLYLINE
  5
217
330
202
100
AcDbEntity
 67
     1
  8
0
  6
Continuous
 62
     7
370
    25
100
AcDbPolyline
 90
        9
 70
   128
 43
0.0
 10
-1.7610784314
 20
-0.95
 10
-1.7620730095
 20
-0.9498078528
 10
-1.7630293665
 20
-0.9492387953
 10
-1.7639107502
 20
-0.9483146961
 10
-1.7646832895
 20
-0.9470710678
 10
-1.7653172961
 20
-0.9455557023
 10
-1.7657884055
 20
-0.9438268343
 10
-1.7660785132
 20
-0.9419509032
 10
-1.7661764706
 20
-0.94
  0
LWPOLYLINE
  5
219
330
202
100
AcDbEntity
 67
     1
  8
0
  6
Continuous
 62
     7
370
    25
100
AcDbPolyline
 90
        9
 70
   128
 43
0.0
 10
1.7610784314
 20
0.95
 10
1.7620730095
 20
0.9498078528
 10
1.7630293665
 20
0.9492387953
 10
1.7639107502
 20
0.9483146961
 10
1.7646832895
 20
0.9470710678
 10
1.7653172961
 20
0.9455557023
 10
1.7657884055
 20
0.9438268343
 10
1.7660785132
 20
0.9419509032
 10
1.7661764706
 20
0.94
  0
LWPOLYLINE
  5
21E
330
202
100
AcDbEntity
 67
     1
  8
0
  6
Continuous
 62
     7
370
    25
100
AcDbPolyline
 90
        9
 70
   128
 43
0.0
 10
-1.7661764706
 20
0.94
 10
-1.7660785132
 20
0.9419509032
 10
-1.7657884055
 20
0.9438268343
 10
-1.7653172961
 20
0.9455557023
 10
-1.7646832895
 20
0.9470710678
 10
-1.7639107502
 20
0.9483146961
 10
-1.7630293665
 20
0.9492387953
 10
-1.7620730095
 20
0.9498078528
 10
-1.7610784314
 20
0.95
  0
LWPOLYLINE
  5
220
330
202
100
AcDbEntity
 67
     1
  8
0
  6
Continuous
 62
     7
370
    25
100
AcDbPolyline
 90
        9
 70
   128
 43
0.0
 10
1.7610784314
 20
-0.95
 10
1.7620730095
 20
-0.9498078528
 10
1.7630293665
 20
-0.9492387953
 10
1.7639107502
 20
-0.9483146961
 10
1.7646832895
 20
-0.9470710678
 10
1.7653172961
 20
-0.9455557023
 10
1.7657884055
 20
-0.9438268343
 10
1.7660785132
 20
-0.9419509032
 10
1.7661764706
 20
-0.94
  0
LINE
  5
230
330
202
100
AcDbEntity
 67
     1
  8
0
  6
Continuous
 62
     7
370
    25
100
AcDbLine
 10
1.95
 20
0.94
 30
0.0
 11
-1.95
 21
0.94
 31
0.0
  0
LINE
  5
231
330
202
100
AcDbEntity
 67
     1
  8
0
  6
Continuous
 62
     7
370
    25
100
AcDbLine
 10
1.575
 20
-0.94
 30
0.0
 11
1.575
 21
0.94
 31
0.0
  0
LINE
  5
232
330
202
100
AcDbEntity
 67
     1
  8
0
  6
Continuous
 62
     7
370
    25
100
AcDbLine
 10
-1.95
 20
-0.94
 30
0.0
 11
1.95
 21
-0.94
 31
0.0
  0
LINE
  5
233
330
202
100
AcDbEntity
 67
     1
  8
0
  6
Continuous
 62
     7
370
    25
100
AcDbLine
 10
-1.575
 20
-0.94
 30
0.0
 11
-1.575
 21
0.94
 31
0.0
  0
LINE
  5
234
330
202
100
AcDbEntity
 67
     1
  8
0
  6
Continuous
 62
     7
370
    25
100
AcDbLine
 10
1.94
 20
-0.95
 30
0.0
 11
-1.94
 21
-0.95
 31
0.0
  0
LINE
  5
235
330
202
100
AcDbEntity
 67
     1
  8
0
  6
Continuous
 62
     7
370
    25
100
AcDbLine
 10
-1.94
 20
0.95
 30
0.0
 11
1.94
 21
0.95
 31
0.0
  0
LINE
  5
236
330
202
100
AcDbEntity
 67
     1
  8
0
  6
Continuous
 62
     7
370
    25
100
AcDbLine
 10
-1.7661764706
 20
0.94
 30
0.0
 11
-1.7661764706
 21
-0.94
 31
0.0
  0
LINE
  5
237
330
202
100
AcDbEntity
 67
     1
  8
0
  6
Continuous
 62
     7
370
    25
100
AcDbLine
 10
1.7661764706
 20
-0.94
 30
0.0
 11
1.7661764706
 21
0.94
 31
0.0
  0
LINE
  5
238
330
202
100
AcDbEntity
 67
     1
  8
0
  6
Continuous
 62
     7
370
    25
100
AcDbLine
 10
1.95
 20
0.94
 30
0.0
 11
1.95
 21
-0.94
 31
0.0
  0
LINE
  5
239
330
202
100
AcDbEntity
 67
     1
  8
0
  6
Continuous
 62
     7
370
    25
100
AcDbLine
 10
-1.95
 20
-0.94
 30
0.0
 11
-1.95
 21
0.94
 31
0.0
  0
ARC
  5
23A
330
202
100
AcDbEntity
 67
     1
  8
0
  6
Continuous
 62
     7
370
    25
100
AcDbCircle
 10
1.565
 20
-0.94
 30
0.0
 40
0.0099999999999997
100
AcDbArc
 50
270.0
 51
0.0
  0
ARC
  5
23B
330
202
100
AcDbEntity
 67
     1
  8
0
  6
Continuous
 62
     7
370
    25
100
AcDbCircle
 10
-1.565
 20
-0.94
 30
0.0
 40
0.0099999999999997
100
AcDbArc
 50
180.0
 51
270.0
  0
ARC
  5
23C
330
202
100
AcDbEntity
 67
     1
  8
0
  6
Continuous
 62
     7
370
    25
100
AcDbCircle
 10
-1.565
 20
0.94
 30
0.0
 40
0.0099999999999998
100
AcDbArc
 50
90.0
 51
180.0
  0
ARC
  5
23D
330
202
100
AcDbEntity
 67
     1
  8
0
  6
Continuous
 62
     7
370
    25
100
AcDbCircle
 10
1.565
 20
0.94
 30
0.0
 40
0.0099999999999998
100
AcDbArc
 50
360.0
 51
90.0
  0
ARC
  5
23E
330
202
100
AcDbEntity
 67
     1
  8
0
  6
Continuous
 62
     7
370
    25
100
AcDbCircle
 10
1.94
 20
-0.94
 30
0.0
 40
0.0099999999999996
100
AcDbArc
 50
270.0
 51
0.0
  0
ARC
  5
23F
330
202
100
AcDbEntity
 67
     1
  8
0
  6
Continuous
 62
     7
370
    25
100
AcDbCircle
 10
1.94
 20
0.94
 30
0.0
 40
0.0099999999999996
100
AcDbArc
 50
360.0
 51
90.0
  0
ARC
  5
240
330
202
100
AcDbEntity
 67
     1
  8
0
  6
Continuous
 62
     7
370
    25
100
AcDbCircle
 10
-1.94
 20
0.94
 30
0.0
 40
0.0100000000000005
100
AcDbArc
 50
90.0
 51
180.0
  0
ARC
  5
241
330
202
100
AcDbEntity
 67
     1
  8
0
  6
Continuous
 62
     7
370
    25
100
AcDbCircle
 10
-1.94
 20
-0.94
 30
0.0
 40
0.0100000000000001
100
AcDbArc
 50
180.0
 51
270.0
  0
VIEWPORT
  5
246
330
202
100
AcDbEntity
 67
     1
  8
0
100
AcDbViewport
 10
0.0
 20
0.0
 30
0.0
 40
8.4
 41
6.4
 68
     1
 69
     1
 12
0.0
 22
0.0
 13
0.0
 23
0.0
 14
0.5
 24
0.5
 15
0.5
 25
0.5
 16
0.0
 26
0.0
 36
1.0
 17
0.0
 27
0.0
 37
0.0
 42
50.0
 43
0.0
 44
0.0
 45
4.335
 50
0.0
 51
0.0
 72
   100
 90
   557152
  1

281
     0
 71
     1
 74
     0
110
0.0
120
0.0
130
0.0
111
1.0
121
0.0
131
0.0
112
0.0
122
1.0
132
0.0
 79
     0
146
0.0
  0
ENDSEC
  0
SECTION
  2
OBJECTS
  0
DICTIONARY
  5
C
330
0
100
AcDbDictionary
281
     1
  3
ACAD_GROUP
350
D
  3
ACAD_LAYOUT
350
1A
  3
ACAD_MLINESTYLE
350
17
  3
ACAD_PLOTSETTINGS
350
19
  3
ACAD_PLOTSTYLENAME
350
E
  3
ACAD_SCALELIST
350
47
  0
DICTIONARY
  5
D
102
{ACAD_REACTORS
330
C
102
}
330
C
100
AcDbDictionary
281
     1
  0
DICTIONARY
  5
1A
102
{ACAD_REACTORS
330
C
102
}
330
C
100
AcDbDictionary
281
     1
  3
_Back
350
203
  3
_Front
350
1E
  3
_Right
350
26
  3
Model
350
22
  0
DICTIONARY
  5
17
102
{ACAD_REACTORS
330
C
102
}
330
C
100
AcDbDictionary
281
     1
  3
Standard
350
18
  0
DICTIONARY
  5
19
102
{ACAD_REACTORS
330
C
102
}
330
C
100
AcDbDictionary
281
     1
  0
ACDBDICTIONARYWDFLT
  5
E
102
{ACAD_REACTORS
330
C
102
}
330
C
100
AcDbDictionary
281
     1
  3
Normal
350
F
100
AcDbDictionaryWithDefault
340
F
  0
DICTIONARY
  5
47
102
{ACAD_REACTORS
330
C
102
}
330
C
100
AcDbDictionary
281
     1
  3
A0
350
48
  3
A1
350
49
  3
A2
350
4A
  3
A3
350
4B
  3
A4
350
4C
  3
A5
350
4D
  3
A6
350
4E
  3
A7
350
4F
  3
A8
350
50
  3
A9
350
51
  3
B0
350
52
  3
B1
350
53
  3
B2
350
54
  3
B3
350
55
  3
B4
350
56
  3
B5
350
57
  3
B6
350
58
  3
B7
350
59
  3
B8
350
5A
  3
B9
350
5B
  3
C0
350
5C
  3
C1
350
5D
  3
C2
350
5E
  3
C3
350
5F
  3
C4
350
60
  3
C5
350
61
  3
C6
350
62
  3
C7
350
63
  3
C8
350
64
  3
C9
350
65
  3
D0
350
66
  3
D1
350
67
  3
D2
350
68
  0
LAYOUT
  5
203
102
{ACAD_REACTORS
330
1A
102
}
330
1A
100
AcDbPlotSettings
  1

  2
none_device
  4
ANSI_A_(11.00_x_8.50_Inches)
  6

 40
6.35
 41
19.05
 42
6.35000508
 43
19.05000254
 44
279.4
 45
215.9
 46
133.34999746
 47
88.89999873
 48
0.0
 49
0.0
140
0.0
141
0.0
142
1.98
143
1.0
 70
  1696
 72
     0
 73
     0
 74
     1
  7

 75
     0
147
1.6470588
148
49.53
149
53.975
100
AcDbLayout
  1
_Back
 70
     1
 71
     3
 10
0.0
 20
0.0
 11
0.0
 21
0.0
 12
0.0
 22
0.0
 32
0.0
 14
-1.95
 24
-2.125
 34
0.0
 15
1.95
 25
2.125
 35
0.0
146
0.0
 13
0.0
 23
0.0
 33
0.0
 16
1.0
 26
0.0
 36
0.0
 17
0.0
 27
1.0
 37
0.0
 76
     0
330
202
331
246
  0
LAYOUT
  5
1E
102
{ACAD_REACTORS
330
1A
102
}
330
1A
100
AcDbPlotSettings
  1

  2
none_device
  4
Letter_(8.50_x_11.00_Inches)
  6

 40
6.35
 41
6.35
 42
6.35001
 43
6.35001
 44
215.9
 45
279.4
 46
0.0
 47
0.0
 48
0.0
 49
0.0
140
0.0
141
0.0
142
1.0
143
0.3714285854
 70
   688
 72
     0
 73
     1
 74
     1
  7

 75
     0
147
2.6923075914
148
49.53
149
24.13
100
AcDbLayout
  1
_Front
 70
     1
 71
     1
 10
-2.0428572926
 20
-1.0428571463
 11
2.0428571463
 21
2.1142858292
 12
0.0
 22
0.0
 32
0.0
 14
1.0000000000E+20
 24
1.0000000000E+20
 34
1.0000000000E+20
 15
-1.0000000000E+20
 25
-1.0000000000E+20
 35
-1.0000000000E+20
146
0.0
 13
0.0
 23
0.0
 33
0.0
 16
1.0
 26
0.0
 36
0.0
 17
0.0
 27
1.0
 37
0.0
 76
     0
330
1B
331
242
  0
LAYOUT
  5
26
102
{ACAD_REACTORS
330
1A
102
}
330
1A
100
AcDbPlotSettings
  1

  2
none_device
  4
Letter_(8.50_x_11.00_Inches)
  6

 40
6.35
 41
6.35
 42
6.35001
 43
6.35001
 44
215.9
 45
279.4
 46
0.0
 47
0.0
 48
0.0
 49
0.0
140
0.0
141
0.0
142
1.0
143
0.3714285854
 70
   688
 72
     0
 73
     1
 74
     1
  7

 75
     0
147
2.6923075914
148
49.53
149
24.13
100
AcDbLayout
  1
_Right
 70
     1
 71
     2
 10
0.0
 20
0.0
 11
0.0
 21
0.0
 12
0.0
 22
0.0
 32
0.0
 14
0.0
 24
0.0
 34
0.0
 15
0.0
 25
0.0
 35
0.0
146
0.0
 13
0.0
 23
0.0
 33
0.0
 16
1.0
 26
0.0
 36
0.0
 17
0.0
 27
1.0
 37
0.0
 76
     0
330
23
331
244
  0
LAYOUT
  5
22
102
{ACAD_REACTORS
330
1A
102
}
330
1A
100
AcDbPlotSettings
  1

  2
none_device
  4
Letter_(8.50_x_11.00_Inches)
  6

 40
6.35
 41
6.35
 42
6.35000508
 43
6.35000508
 44
215.9
 45
279.4
 46
0.0
 47
0.0
 48
0.0
 49
0.0
140
0.0
141
0.0
142
1.0
143
1.0
 70
  1712
 72
     0
 73
     0
 74
     0
  7

 75
     0
147
1.0
148
0.0
149
0.0
100
AcDbLayout
  1
Model
 70
     1
 71
     0
 10
0.0
 20
0.0
 11
12.0
 21
9.0
 12
0.0
 22
0.0
 32
0.0
 14
-1.95
 24
-2.125
 34
0.0
 15
1.95
 25
2.125
 35
0.0
146
0.0
 13
0.0
 23
0.0
 33
0.0
 16
1.0
 26
0.0
 36
0.0
 17
0.0
 27
1.0
 37
0.0
 76
     0
330
1F
331
29
  0
MLINESTYLE
  5
18
102
{ACAD_REACTORS
330
17
102
}
330
17
100
AcDbMlineStyle
  2
Standard
 70
     0
  3

 62
   256
 51
90.0
 52
90.0
 71
     2
 49
0.5
 62
   256
  6
BYLAYER
 49
-0.5
 62
   256
  6
BYLAYER
  0
ACDBPLACEHOLDER
  5
F
102
{ACAD_REACTORS
330
E
102
}
330
E
  0
SCALE
  5
48
102
{ACAD_REACTORS
330
47
102
}
330
47
100
AcDbScale
 70
     0
300
1:1
140
1.0
141
1.0
290
     1
  0
SCALE
  5
49
102
{ACAD_REACTORS
330
47
102
}
330
47
100
AcDbScale
 70
     0
300
1:2
140
1.0
141
2.0
290
     0
  0
SCALE
  5
4A
102
{ACAD_REACTORS
330
47
102
}
330
47
100
AcDbScale
 70
     0
300
1:4
140
1.0
141
4.0
290
     0
  0
SCALE
  5
4B
102
{ACAD_REACTORS
330
47
102
}
330
47
100
AcDbScale
 70
     0
300
1:5
140
1.0
141
5.0
290
     0
  0
SCALE
  5
4C
102
{ACAD_REACTORS
330
47
102
}
330
47
100
AcDbScale
 70
     0
300
1:8
140
1.0
141
8.0
290
     0
  0
SCALE
  5
4D
102
{ACAD_REACTORS
330
47
102
}
330
47
100
AcDbScale
 70
     0
300
1:10
140
1.0
141
10.0
290
     0
  0
SCALE
  5
4E
102
{ACAD_REACTORS
330
47
102
}
330
47
100
AcDbScale
 70
     0
300
1:16
140
1.0
141
16.0
290
     0
  0
SCALE
  5
4F
102
{ACAD_REACTORS
330
47
102
}
330
47
100
AcDbScale
 70
     0
300
1:20
140
1.0
141
20.0
290
     0
  0
SCALE
  5
50
102
{ACAD_REACTORS
330
47
102
}
330
47
100
AcDbScale
 70
     0
300
1:30
140
1.0
141
30.0
290
     0
  0
SCALE
  5
51
102
{ACAD_REACTORS
330
47
102
}
330
47
100
AcDbScale
 70
     0
300
1:40
140
1.0
141
40.0
290
     0
  0
SCALE
  5
52
102
{ACAD_REACTORS
330
47
102
}
330
47
100
AcDbScale
 70
     0
300
1:50
140
1.0
141
50.0
290
     0
  0
SCALE
  5
53
102
{ACAD_REACTORS
330
47
102
}
330
47
100
AcDbScale
 70
     0
300
1:100
140
1.0
141
100.0
290
     0
  0
SCALE
  5
54
102
{ACAD_REACTORS
330
47
102
}
330
47
100
AcDbScale
 70
     0
300
2:1
140
2.0
141
1.0
290
     0
  0
SCALE
  5
55
102
{ACAD_REACTORS
330
47
102
}
330
47
100
AcDbScale
 70
     0
300
4:1
140
4.0
141
1.0
290
     0
  0
SCALE
  5
56
102
{ACAD_REACTORS
330
47
102
}
330
47
100
AcDbScale
 70
     0
300
8:1
140
8.0
141
1.0
290
     0
  0
SCALE
  5
57
102
{ACAD_REACTORS
330
47
102
}
330
47
100
AcDbScale
 70
     0
300
10:1
140
10.0
141
1.0
290
     0
  0
SCALE
  5
58
102
{ACAD_REACTORS
330
47
102
}
330
47
100
AcDbScale
 70
     0
300
100:1
140
100.0
141
1.0
290
     0
  0
SCALE
  5
59
102
{ACAD_REACTORS
330
47
102
}
330
47
100
AcDbScale
 70
     0
300
1/128" = 1'-0"
140
0.0078125
141
12.0
290
     0
  0
SCALE
  5
5A
102
{ACAD_REACTORS
330
47
102
}
330
47
100
AcDbScale
 70
     0
300
1/64" = 1'-0"
140
0.015625
141
12.0
290
     0
  0
SCALE
  5
5B
102
{ACAD_REACTORS
330
47
102
}
330
47
100
AcDbScale
 70
     0
300
1/32" = 1'-0"
140
0.03125
141
12.0
290
     0
  0
SCALE
  5
5C
102
{ACAD_REACTORS
330
47
102
}
330
47
100
AcDbScale
 70
     0
300
1/16" = 1'-0"
140
0.0625
141
12.0
290
     0
  0
SCALE
  5
5D
102
{ACAD_REACTORS
330
47
102
}
330
47
100
AcDbScale
 70
     0
300
3/32" = 1'-0"
140
0.09375
141
12.0
290
     0
  0
SCALE
  5
5E
102
{ACAD_REACTORS
330
47
102
}
330
47
100
AcDbScale
 70
     0
300
1/8" = 1'-0"
140
0.125
141
12.0
290
     0
  0
SCALE
  5
5F
102
{ACAD_REACTORS
330
47
102
}
330
47
100
AcDbScale
 70
     0
300
3/16" = 1'-0"
140
0.1875
141
12.0
290
     0
  0
SCALE
  5
60
102
{ACAD_REACTORS
330
47
102
}
330
47
100
AcDbScale
 70
     0
300
1/4" = 1'-0"
140
0.25
141
12.0
290
     0
  0
SCALE
  5
61
102
{ACAD_REACTORS
330
47
102
}
330
47
100
AcDbScale
 70
     0
300
3/8" = 1'-0"
140
0.375
141
12.0
290
     0
  0
SCALE
  5
62
102
{ACAD_REACTORS
330
47
102
}
330
47
100
AcDbScale
 70
     0
300
1/2" = 1'-0"
140
0.5
141
12.0
290
     0
  0
SCALE
  5
63
102
{ACAD_REACTORS
330
47
102
}
330
47
100
AcDbScale
 70
     0
300
3/4" = 1'-0"
140
0.75
141
12.0
290
     0
  0
SCALE
  5
64
102
{ACAD_REACTORS
330
47
102
}
330
47
100
AcDbScale
 70
     0
300
1" = 1'-0"
140
1.0
141
12.0
290
     0
  0
SCALE
  5
65
102
{ACAD_REACTORS
330
47
102
}
330
47
100
AcDbScale
 70
     0
300
1-1/2" = 1'-0"
140
1.5
141
12.0
290
     0
  0
SCALE
  5
66
102
{ACAD_REACTORS
330
47
102
}
330
47
100
AcDbScale
 70
     0
300
3" = 1'-0"
140
3.0
141
12.0
290
     0
  0
SCALE
  5
67
102
{ACAD_REACTORS
330
47
102
}
330
47
100
AcDbScale
 70
     0
300
6" = 1'-0"
140
6.0
141
12.0
290
     0
  0
SCALE
  5
68
102
{ACAD_REACTORS
330
47
102
}
330
47
100
AcDbScale
 70
     0
300
1'-0" = 1'-0"
140
12.0
141
12.0
290
     0
  0
ENDSEC
  0
EOF
