   0
SECTION
  2
HEADER
  9
$ACADVER
  1
AC1015
  9
$ACADMAINTVER
 70
     6
  9
$DWGCODEPAGE
  3
ANSI_1252
  9
$INSBASE
 10
0.0
 20
0.0
 30
0.0
  9
$EXTMIN
 10
-1.95
 20
-1.8
 30
0.0
  9
$EXTMAX
 10
1.95
 20
1.8
 30
0.0
  9
$LIMMIN
 10
0.0
 20
0.0
  9
$LIMMAX
 10
12.0
 20
9.0
  9
$ORTHOMODE
 70
     0
  9
$REGENMODE
 70
     1
  9
$FILLMODE
 70
     1
  9
$QTEXTMODE
 70
     0
  9
$MIRRTEXT
 70
     1
  9
$LTSCALE
 40
1.0
  9
$ATTMODE
 70
     1
  9
$TEXTSIZE
 40
0.1377952756
  9
$TRACEWID
 40
0.05
  9
$TEXTSTYLE
  7
Standard
  9
$CLAYER
  8
0
  9
$CELTYPE
  6
ByLayer
  9
$CECOLOR
 62
   256
  9
$CELTSCALE
 40
1.0
  9
$DISPSILH
 70
     0
  9
$DIMSCALE
 40
1.0
  9
$DIMASZ
 40
0.2362204724
  9
$DIMEXO
 40
0.0393700787
  9
$DIMDLI
 40
0.38
  9
$DIMRND
 40
0.0
  9
$DIMDLE
 40
0.0
  9
$DIMEXE
 40
0.0393700787
  9
$DIMTP
 40
0.0
  9
$DIMTM
 40
0.0
  9
$DIMTXT
 40
0.1377952756
  9
$DIMCEN
 40
0.09
  9
$DIMTSZ
 40
0.0
  9
$DIMTOL
 70
     0
  9
$DIMLIM
 70
     0
  9
$DIMTIH
 70
     1
  9
$DIMTOH
 70
     1
  9
$DIMSE1
 70
     0
  9
$DIMSE2
 70
     0
  9
$DIMTAD
 70
     1
  9
$DIMZIN
 70
     0
  9
$DIMBLK
  1

  9
$DIMASO
 70
     1
  9
$DIMSHO
 70
     1
  9
$DIMPOST
  1

  9
$DIMAPOST
  1

  9
$DIMALT
 70
     0
  9
$DIMALTD
 70
     2
  9
$DIMALTF
 40
25.4
  9
$DIMLFAC
 40
1.0
  9
$DIMTOFL
 70
     0
  9
$DIMTVP
 40
0.0
  9
$DIMTIX
 70
     0
  9
$DIMSOXD
 70
     0
  9
$DIMSAH
 70
     0
  9
$DIMBLK1
  1

  9
$DIMBLK2
  1

  9
$DIMSTYLE
  2
Standard
  9
$DIMCLRD
 70
     0
  9
$DIMCLRE
 70
     0
  9
$DIMCLRT
 70
     0
  9
$DIMTFAC
 40
1.0
  9
$DIMGAP
 40
0.06
  9
$DIMJUST
 70
     0
  9
$DIMSD1
 70
     0
  9
$DIMSD2
 70
     0
  9
$DIMTOLJ
 70
     1
  9
$DIMTZIN
 70
     0
  9
$DIMALTZ
 70
     0
  9
$DIMALTTZ
 70
     0
  9
$DIMUPT
 70
     0
  9
$DIMDEC
 70
     3
  9
$DIMTDEC
 70
     3
  9
$DIMALTU
 70
     2
  9
$DIMALTTD
 70
     2
  9
$DIMTXSTY
  7
Standard
  9
$DIMAUNIT
 70
     0
  9
$DIMADEC
 70
     2
  9
$DIMALTRND
 40
0.0
  9
$DIMAZIN
 70
     0
  9
$DIMDSEP
 70
    46
  9
$DIMATFIT
 70
     3
  9
$DIMFRAC
 70
     0
  9
$DIMLDRBLK
  1

  9
$DIMLUNIT
 70
     2
  9
$DIMLWD
 70
    -2
  9
$DIMLWE
 70
    -2
  9
$DIMTMOVE
 70
     0
  9
$LUNITS
 70
     2
  9
$LUPREC
 70
     2
  9
$SKETCHINC
 40
0.1
  9
$FILLETRAD
 40
0.5
  9
$AUNITS
 70
     0
  9
$AUPREC
 70
     2
  9
$MENU
  1
.
  9
$ELEVATION
 40
0.0
  9
$PELEVATION
 40
0.0
  9
$THICKNESS
 40
0.0
  9
$LIMCHECK
 70
     0
  9
$CHAMFERA
 40
0.0
  9
$CHAMFERB
 40
0.0
  9
$CHAMFERC
 40
0.0
  9
$CHAMFERD
 40
0.0
  9
$SKPOLY
 70
     0
  9
$TDCREATE
 40
2458226.550149502
  9
$TDUCREATE
 40
2458226.841816169
  9
$TDUPDATE
 40
2458226.550221134
  9
$TDUUPDATE
 40
2458226.841887801
  9
$TDINDWG
 40
0.0000000116
  9
$TDUSRTIMER
 40
0.0000000116
  9
$USRTIMER
 70
     1
  9
$ANGBASE
 50
0.0
  9
$ANGDIR
 70
     0
  9
$PDMODE
 70
     0
  9
$PDSIZE
 40
-1.0
  9
$PLINEWID
 40
0.0
  9
$SPLFRAME
 70
     0
  9
$SPLINETYPE
 70
     6
  9
$SPLINESEGS
 70
     8
  9
$HANDSEED
  5
255
  9
$SURFTAB1
 70
     6
  9
$SURFTAB2
 70
     6
  9
$SURFTYPE
 70
     6
  9
$SURFU
 70
     6
  9
$SURFV
 70
     6
  9
$UCSBASE
  2

  9
$UCSNAME
  2

  9
$UCSORG
 10
0.0
 20
0.0
 30
0.0
  9
$UCSXDIR
 10
1.0
 20
0.0
 30
0.0
  9
$UCSYDIR
 10
0.0
 20
1.0
 30
0.0
  9
$UCSORTHOREF
  2

  9
$UCSORTHOVIEW
 70
     0
  9
$UCSORGTOP
 10
0.0
 20
0.0
 30
0.0
  9
$UCSORGBOTTOM
 10
0.0
 20
0.0
 30
0.0
  9
$UCSORGLEFT
 10
0.0
 20
0.0
 30
0.0
  9
$UCSORGRIGHT
 10
0.0
 20
0.0
 30
0.0
  9
$UCSORGFRONT
 10
0.0
 20
0.0
 30
0.0
  9
$UCSORGBACK
 10
0.0
 20
0.0
 30
0.0
  9
$PUCSBASE
  2

  9
$PUCSNAME
  2

  9
$PUCSORG
 10
0.0
 20
0.0
 30
0.0
  9
$PUCSXDIR
 10
1.0
 20
0.0
 30
0.0
  9
$PUCSYDIR
 10
0.0
 20
1.0
 30
0.0
  9
$PUCSORTHOREF
  2

  9
$PUCSORTHOVIEW
 70
     0
  9
$PUCSORGTOP
 10
0.0
 20
0.0
 30
0.0
  9
$PUCSORGBOTTOM
 10
0.0
 20
0.0
 30
0.0
  9
$PUCSORGLEFT
 10
0.0
 20
0.0
 30
0.0
  9
$PUCSORGRIGHT
 10
0.0
 20
0.0
 30
0.0
  9
$PUCSORGFRONT
 10
0.0
 20
0.0
 30
0.0
  9
$PUCSORGBACK
 10
0.0
 20
0.0
 30
0.0
  9
$USERI1
 70
     0
  9
$USERI2
 70
     0
  9
$USERI3
 70
     0
  9
$USERI4
 70
     0
  9
$USERI5
 70
     0
  9
$USERR1
 40
0.0
  9
$USERR2
 40
0.0
  9
$USERR3
 40
0.0
  9
$USERR4
 40
0.0
  9
$USERR5
 40
0.0
  9
$WORLDVIEW
 70
     1
  9
$SHADEDGE
 70
     3
  9
$SHADEDIF
 70
    70
  9
$TILEMODE
 70
     0
  9
$MAXACTVP
 70
    64
  9
$PINSBASE
 10
0.0
 20
0.0
 30
0.0
  9
$PLIMCHECK
 70
     0
  9
$PEXTMIN
 10
-1.95
 20
-1.8
 30
0.0
  9
$PEXTMAX
 10
1.95
 20
1.8
 30
0.0
  9
$PLIMMIN
 10
0.0
 20
0.0
  9
$PLIMMAX
 10
0.0
 20
0.0
  9
$UNITMODE
 70
     0
  9
$VISRETAIN
 70
     1
  9
$PLINEGEN
 70
     0
  9
$PSLTSCALE
 70
     1
  9
$TREEDEPTH
 70
  3020
  9
$CMLSTYLE
  2
Standard
  9
$CMLJUST
 70
     0
  9
$CMLSCALE
 40
1.0
  9
$PROXYGRAPHICS
 70
     1
  9
$MEASUREMENT
 70
     0
  9
$CELWEIGHT
370
    -1
  9
$ENDCAPS
280
     0
  9
$JOINSTYLE
280
     0
  9
$LWDISPLAY
290
     1
  9
$INSUNITS
 70
     1
  9
$HYPERLINKBASE
  1

  9
$STYLESHEET
  1

  9
$XEDIT
290
     1
  9
$CEPSNTYPE
380
     0
  9
$PSTYLEMODE
290
     1
  9
$FINGERPRINTGUID
  2
{9D52B72C-11FE-4303-B97B-9B0751873A59}
  9
$VERSIONGUID
  2
{FAEB1C32-E019-11D5-929B-00C0DF256EC4}
  9
$EXTNAMES
290
     1
  9
$PSVPSCALE
 40
0.0
  9
$OLESTARTUP
290
     0
  0
ENDSEC
  0
SECTION
  2
CLASSES
  0
CLASS
  1
ACDBDICTIONARYWDFLT
  2
AcDbDictionaryWithDefault
  3
ObjectDBX Classes
 90
        0
280
     0
281
     0
  0
CLASS
  1
VISUALSTYLE
  2
AcDbVisualStyle
  3
ObjectDBX Classes
 90
     4095
280
     0
281
     0
  0
CLASS
  1
MATERIAL
  2
AcDbMaterial
  3
ObjectDBX Classes
 90
     1153
280
     0
281
     0
  0
CLASS
  1
SCALE
  2
AcDbScale
  3
ObjectDBX Classes
 90
     1153
280
     0
281
     0
  0
CLASS
  1
TABLESTYLE
  2
AcDbTableStyle
  3
ObjectDBX Classes
 90
     4095
280
     0
281
     0
  0
CLASS
  1
MLEADERSTYLE
  2
AcDbMLeaderStyle
  3
ACDB_MLEADERSTYLE_CLASS
 90
     4095
280
     0
281
     0
  0
CLASS
  1
SUN
  2
AcDbSun
  3
SCENEOE
 90
     1153
280
     0
281
     0
  0
CLASS
  1
ACDBPLACEHOLDER
  2
AcDbPlaceHolder
  3
ObjectDBX Classes
 90
        0
280
     0
281
     0
  0
CLASS
  1
LAYOUT
  2
AcDbLayout
  3
ObjectDBX Classes
 90
        0
280
     0
281
     0
  0
ENDSEC
  0
SECTION
  2
TABLES
  0
TABLE
  2
VPORT
  5
8
330
0
100
AcDbSymbolTable
 70
     1
  0
VPORT
  5
29
330
8
100
AcDbSymbolTableRecord
100
AcDbViewportTableRecord
  2
*Active
 70
     0
 10
0.0
 20
0.0
 11
1.0
 21
1.0
 12
0.0
 22
0.0
 13
0.0
 23
0.0
 14
0.5
 24
0.5
 15
0.5
 25
0.5
 16
0.0
 26
0.0
 36
1.0
 17
0.0
 27
0.0
 37
0.0
 40
3.672
 41
1.0833333333
 42
50.0
 43
0.0
 44
0.0
 50
0.0
 51
0.0
 71
     0
 72
   100
 73
     1
 74
     3
 75
     0
 76
     0
 77
     0
 78
     0
281
     0
 65
     1
110
0.0
120
0.0
130
0.0
111
1.0
121
0.0
131
0.0
112
0.0
122
1.0
132
0.0
 79
     0
146
0.0
  0
ENDTAB
  0
TABLE
  2
LTYPE
  5
5
330
0
100
AcDbSymbolTable
 70
     6
  0
LTYPE
  5
14
330
5
100
AcDbSymbolTableRecord
100
AcDbLinetypeTableRecord
  2
ByBlock
 70
     0
  3

 72
    65
 73
     0
 40
0.0
  0
LTYPE
  5
15
330
5
100
AcDbSymbolTableRecord
100
AcDbLinetypeTableRecord
  2
ByLayer
 70
     0
  3

 72
    65
 73
     0
 40
0.0
  0
LTYPE
  5
16
330
5
100
AcDbSymbolTableRecord
100
AcDbLinetypeTableRecord
  2
Continuous
 70
     0
  3
Solid line
 72
    65
 73
     0
 40
0.0
  0
LTYPE
  5
6E
330
5
100
AcDbSymbolTableRecord
100
AcDbLinetypeTableRecord
  2
HIDDEN
 70
     0
  3
Hidden __ __ __ __ __ __ __ __ __ __ __ __ __ __
 72
    65
 73
     2
 40
0.075
 49
0.05
 74
     0
 49
-0.025
 74
     0
  0
LTYPE
  5
6F
330
5
100
AcDbSymbolTableRecord
100
AcDbLinetypeTableRecord
  2
PHANTOM
 70
     0
  3
Phantom ______  __  __  ______  __  __  ______
 72
    65
 73
     6
 40
0.5
 49
0.25
 74
     0
 49
-0.05
 74
     0
 49
0.05
 74
     0
 49
-0.05
 74
     0
 49
0.05
 74
     0
 49
-0.05
 74
     0
  0
LTYPE
  5
70
330
5
100
AcDbSymbolTableRecord
100
AcDbLinetypeTableRecord
  2
CENTER
 70
     0
  3
Center ____ _ ____ _ ____ _ ____ _ ____ _ ____
 72
    65
 73
     4
 40
0.4
 49
0.25
 74
     0
 49
-0.05
 74
     0
 49
0.05
 74
     0
 49
-0.05
 74
     0
  0
LTYPE
  5
71
330
5
100
AcDbSymbolTableRecord
100
AcDbLinetypeTableRecord
  2
CENTERX2
 70
     0
  3
Center (2x) ________  __  ________  __  _____
 72
    65
 73
     4
 40
0.8
 49
0.5
 74
     0
 49
-0.1
 74
     0
 49
0.1
 74
     0
 49
-0.1
 74
     0
  0
LTYPE
  5
72
330
5
100
AcDbSymbolTableRecord
100
AcDbLinetypeTableRecord
  2
DOT2
 70
     0
  3
Dot (.5x) ........................................
 72
    65
 73
     2
 40
0.025
 49
0.0
 74
     0
 49
-0.025
 74
     0
  0
ENDTAB
  0
TABLE
  2
LAYER
  5
2
330
0
100
AcDbSymbolTable
 70
     1
  0
LAYER
  5
10
330
2
100
AcDbSymbolTableRecord
100
AcDbLayerTableRecord
  2
0
 70
     0
 62
     7
  6
Continuous
370
    -3
390
F
  0
ENDTAB
  0
TABLE
  2
STYLE
  5
3
330
0
100
AcDbSymbolTable
 70
     1
  0
STYLE
  5
11
330
3
100
AcDbSymbolTableRecord
100
AcDbTextStyleTableRecord
  2
Standard
 70
     0
 40
0.0
 41
1.0
 50
0.0
 71
     0
 42
0.1377952756
  3
txt
  4

  0
ENDTAB
  0
TABLE
  2
VIEW
  5
6
330
0
100
AcDbSymbolTable
 70
     0
  0
ENDTAB
  0
TABLE
  2
UCS
  5
7
330
0
100
AcDbSymbolTable
 70
     0
  0
ENDTAB
  0
TABLE
  2
APPID
  5
9
330
0
100
AcDbSymbolTable
 70
     1
  0
APPID
  5
12
330
9
100
AcDbSymbolTableRecord
100
AcDbRegAppTableRecord
  2
ACAD
 70
     0
  0
ENDTAB
  0
TABLE
  2
DIMSTYLE
  5
A
330
0
100
AcDbSymbolTable
 70
     1
100
AcDbDimStyleTable
  0
DIMSTYLE
105
27
330
A
100
AcDbSymbolTableRecord
100
AcDbDimStyleTableRecord
  2
Standard
 70
     0
178
     0
340
11
  0
ENDTAB
  0
TABLE
  2
BLOCK_RECORD
  5
1
330
0
100
AcDbSymbolTable
 70
     2
  0
BLOCK_RECORD
  5
1F
330
1
100
AcDbSymbolTableRecord
100
AcDbBlockTableRecord
  2
*Model_Space
340
22
  0
BLOCK_RECORD
  5
20B
330
1
100
AcDbSymbolTableRecord
100
AcDbBlockTableRecord
  2
*Paper_Space
340
20C
  0
BLOCK_RECORD
  5
1B
330
1
100
AcDbSymbolTableRecord
100
AcDbBlockTableRecord
  2
*Paper_Space0
340
1E
  0
BLOCK_RECORD
  5
23
330
1
100
AcDbSymbolTableRecord
100
AcDbBlockTableRecord
  2
*Paper_Space1
340
26
  0
ENDTAB
  0
ENDSEC
  0
SECTION
  2
BLOCKS
  0
BLOCK
  5
20
330
1F
100
AcDbEntity
  8
0
100
AcDbBlockBegin
  2
*Model_Space
 70
     0
 10
0.0
 20
0.0
 30
0.0
  3
*Model_Space
  1

  0
ENDBLK
  5
21
330
1F
100
AcDbEntity
  8
0
100
AcDbBlockEnd
  0
BLOCK
  5
20D
330
20B
100
AcDbEntity
 67
     1
  8
0
100
AcDbBlockBegin
  2
*Paper_Space
 70
     0
 10
0.0
 20
0.0
 30
0.0
  3
*Paper_Space
  1

  0
ENDBLK
  5
20E
330
20B
100
AcDbEntity
 67
     1
  8
0
100
AcDbBlockEnd
  0
BLOCK
  5
1C
330
1B
100
AcDbEntity
  8
0
100
AcDbBlockBegin
  2
*Paper_Space0
 70
     0
 10
0.0
 20
0.0
 30
0.0
  3
*Paper_Space0
  1

  0
SPLINE
  5
D7
330
1B
100
AcDbEntity
  8
0
  6
Continuous
 62
     7
370
    25
100
AcDbSpline
210
0.0
220
0.0
230
1.0
 70
     8
 71
     3
 72
    23
 73
    19
 74
     0
 42
0.000000001
 43
0.00000001
 40
0.0
 40
0.0
 40
0.0
 40
0.0
 40
0.0688142958243096
 40
0.1363648245522147
 40
0.2040193535112466
 40
0.2730637386246114
 40
0.3429133195614896
 40
0.4109654441389575
 40
0.4791687665134468
 40
0.5493080065097825
 40
0.5876515764176498
 40
0.6306466687627904
 40
0.6788787856966486
 40
0.7319342992295832
 40
0.7911114229480473
 40
0.8552831895130775
 40
0.9250859386773845
 40
1.0
 40
1.0
 40
1.0
 40
1.0
 10
-0.2034902841460881
 20
0.0734063811726704
 30
0.0
 10
-0.2035376117479971
 20
0.0745145139966739
 30
0.0
 10
-0.2036313977855275
 20
0.0767104289052792
 30
0.0
 10
-0.2043970973338234
 20
0.0799252285229018
 30
0.0
 10
-0.2056919548675421
 20
0.0829593604178141
 30
0.0
 10
-0.2074369248645806
 20
0.0858004818741803
 30
0.0
 10
-0.2095628758473568
 20
0.0883794478526996
 30
0.0
 10
-0.2120557031187989
 20
0.0905860286817358
 30
0.0
 10
-0.2148472462349435
 20
0.0924068737478027
 30
0.0
 10
-0.2174563485322617
 20
0.0935704320356713
 30
0.0
 10
-0.2197884041421984
 20
0.0942838120847237
 30
0.0
 10
-0.2218131939075888
 20
0.0947858264079931
 30
0.0
 10
-0.2241010473611077
 20
0.095189151956416
 30
0.0
 10
-0.2266630732907117
 20
0.0955123039593772
 30
0.0
 10
-0.2294883343452343
 20
0.0957900576699595
 30
0.0
 10
-0.2325911158842701
 20
0.0959771355698857
 30
0.0
 10
-0.2359508316425885
 20
0.0960879176213034
 30
0.0
 10
-0.2382794509808337
 20
0.0960933935614829
 30
0.0
 10
-0.2394848833788763
 20
0.0960962282350569
 30
0.0
  0
SPLINE
  5
D8
330
1B
100
AcDbEntity
  8
0
  6
Continuous
 62
     7
370
    25
100
AcDbSpline
210
0.0
220
0.0
230
1.0
 70
     8
 71
     3
 72
    23
 73
    19
 74
     0
 42
0.000000001
 43
0.00000001
 40
0.0
 40
0.0
 40
0.0
 40
0.0
 40
0.0716681496796057
 40
0.1389132862742052
 40
0.2011845700265596
 40
0.2591244282905456
 40
0.3122550414262358
 40
0.3606815096231102
 40
0.4050861433286449
 40
0.4451016585907113
 40
0.5187777804882605
 40
0.5894615790331977
 40
0.6584622419857172
 40
0.7272832183683671
 40
0.7963224869047191
 40
0.8631748932078812
 40
0.930949380987856
 40
1.0
 40
1.0
 40
1.0
 40
1.0
 10
-0.2400921542248282
 20
0.0499712471629793
 30
0.0
 10
-0.2389141999365663
 20
0.0499707260348628
 30
0.0
 10
-0.2366309890263534
 20
0.0499697159401477
 30
0.0
 10
-0.2333278132463775
 20
0.0501269512253272
 30
0.0
 10
-0.2302522182978895
 20
0.0503058220222947
 30
0.0
 10
-0.227415968212755
 20
0.0505794183032689
 30
0.0
 10
-0.2248177959558271
 20
0.0509320195523144
 30
0.0
 10
-0.2224590001597013
 20
0.0513730819239139
 30
0.0
 10
-0.2203357303999871
 20
0.0518869426580434
 30
0.0
 10
-0.2178594099896445
 20
0.0526822822568614
 30
0.0
 10
-0.215094192219687
 20
0.0539423617161236
 30
0.0
 10
-0.2120890166339757
 20
0.0557756490663023
 30
0.0
 10
-0.2095298694784431
 20
0.0580815198996679
 30
0.0
 10
-0.207367748915256
 20
0.060718270137243
 30
0.0
 10
-0.2056303697233141
 20
0.063617335052112
 30
0.0
 10
-0.2044054856943954
 20
0.0667439637614108
 30
0.0
 10
-0.2036282241868332
 20
0.0700192235254898
 30
0.0
 10
-0.2035365491691393
 20
0.0722703301335503
 30
0.0
 10
-0.2034902841460881
 20
0.0734063811726704
 30
0.0
  0
SPLINE
  5
DC
330
1B
100
AcDbEntity
  8
0
  6
Continuous
 62
     7
370
    25
100
AcDbSpline
210
0.0
220
0.0
230
1.0
 70
     8
 71
     3
 72
    23
 73
    19
 74
     0
 42
0.000000001
 43
0.00000001
 40
0.0
 40
0.0
 40
0.0
 40
0.0
 40
0.0700437554181558
 40
0.1392383167626456
 40
0.208197455044138
 40
0.2791733744245675
 40
0.3499868116864773
 40
0.4183538456626554
 40
0.4876095837571503
 40
0.5574110731083887
 40
0.5953301567632409
 40
0.6379640515652198
 40
0.6859127777112937
 40
0.7381851646524785
 40
0.7961026471849422
 40
0.8585165439469267
 40
0.9266577264685197
 40
1.0
 40
1.0
 40
1.0
 40
1.0
 10
-0.0886608878206287
 20
0.0732131586307766
 30
0.0
 10
-0.0887105983125789
 20
0.0743209741208893
 30
0.0
 10
-0.0888094166181262
 20
0.0765231742057648
 30
0.0
 10
-0.0895438994197275
 20
0.0797506844659899
 30
0.0
 10
-0.090778124374985
 20
0.0828308303079894
 30
0.0
 10
-0.0924890139228137
 20
0.0857037864242658
 30
0.0
 10
-0.0945654363622087
 20
0.0883096448480947
 30
0.0
 10
-0.0969787963270898
 20
0.0905733112678924
 30
0.0
 10
-0.0997234129150297
 20
0.0923930633439204
 30
0.0
 10
-0.1022764928769485
 20
0.0935676019915062
 30
0.0
 10
-0.1045442561063756
 20
0.0942847388195829
 30
0.0
 10
-0.1065140183065248
 20
0.0947865041919148
 30
0.0
 10
-0.1087380606091367
 20
0.0951871186110066
 30
0.0
 10
-0.1112171070465525
 20
0.0955115084848723
 30
0.0
 10
-0.1139319430260962
 20
0.0957892038086268
 30
0.0
 10
-0.116905892431396
 20
0.0959776281091776
 30
0.0
 10
-0.1201276894103104
 20
0.0960879216617971
 30
0.0
 10
-0.1223643260585368
 20
0.096093392341194
 30
0.0
 10
-0.1235237550223247
 20
0.0960962282350569
 30
0.0
  0
SPLINE
  5
DD
330
1B
100
AcDbEntity
  8
0
  6
Continuous
 62
     7
370
    25
100
AcDbSpline
210
0.0
220
0.0
230
1.0
 70
     8
 71
     3
 72
    23
 73
    19
 74
     0
 42
0.000000001
 43
0.00000001
 40
0.0
 40
0.0
 40
0.0
 40
0.0
 40
0.0725383714064942
 40
0.1400338305012514
 40
0.2024956806336242
 40
0.260575055669416
 40
0.3132283378464658
 40
0.3615831937532658
 40
0.4048783612951279
 40
0.4441274373055405
 40
0.5163996933371992
 40
0.5865066709977663
 40
0.6550853737960486
 40
0.7243837831470363
 40
0.7939735287256631
 40
0.8616376821817772
 40
0.9301109423064039
 40
0.9999999999999999
 40
0.9999999999999999
 40
0.9999999999999999
 40
0.9999999999999999
 10
-0.1246002806128759
 20
0.0498608342818972
 30
0.0
 10
-0.123422330777724
 20
0.0498602254790963
 30
0.0
 10
-0.1211483229063552
 20
0.0498590501978407
 30
0.0
 10
-0.1178634322278813
 20
0.050015948760015
 30
0.0
 10
-0.1148158224915407
 20
0.0501970720932588
 30
0.0
 10
-0.1120148549571579
 20
0.0504622659303455
 30
0.0
 10
-0.1094592669853739
 20
0.0508371185872032
 30
0.0
 10
-0.1071447973446474
 20
0.0512155334658705
 30
0.0
 10
-0.1050893925062654
 20
0.051762988686285
 30
0.0
 10
-0.1026839121217831
 20
0.0525001173925497
 30
0.0
 10
-0.1000034653707285
 20
0.0537573069855019
 30
0.0
 10
-0.0970874201532801
 20
0.0555821058065087
 30
0.0
 10
-0.0946161372260647
 20
0.0579081179403709
 30
0.0
 10
-0.0924776216055306
 20
0.0605233868902332
 30
0.0
 10
-0.0907805397969322
 20
0.0634328014345661
 30
0.0
 10
-0.0895381778947088
 20
0.0665457516993703
 30
0.0
 10
-0.0888082110693722
 20
0.0698303127041618
 30
0.0
 10
-0.0887103294293851
 20
0.0720778772260192
 30
0.0
 10
-0.0886608878206287
 20
0.0732131586307766
 30
0.0
  0
SPLINE
  5
E1
330
1B
100
AcDbEntity
  8
0
  6
Continuous
 62
     7
370
    25
100
AcDbSpline
210
0.0
220
0.0
230
1.0
 70
     8
 71
     3
 72
    27
 73
    23
 74
     0
 42
0.000000001
 43
0.00000001
 40
0.0
 40
0.0
 40
0.0
 40
0.0
 40
0.0656811979906388
 40
0.128486464174065
 40
0.1881751303280079
 40
0.2451061306699863
 40
0.2994484245294757
 40
0.3508229360093824
 40
0.3999416805337782
 40
0.4466717436323723
 40
0.4912545333734986
 40
0.533376344270437
 40
0.5738527549682243
 40
0.6125263117194528
 40
0.6495971364453297
 40
0.6855320415538508
 40
0.7201057860682012
 40
0.7538376629736498
 40
0.8189254160467134
 40
0.8804934616501646
 40
0.9403113338460568
 40
1.0
 40
1.0
 40
1.0
 40
1.0
 10
0.4024556072328742
 20
0.0413314392182993
 30
0.0
 10
0.4024339462394516
 20
0.042987642860742
 30
0.0
 10
0.4023915727057689
 20
0.04622753123793
 30
0.0
 10
0.4022296046860394
 20
0.0509723415002185
 30
0.0
 10
0.4018113537217874
 20
0.0554789462604213
 30
0.0
 10
0.4013468214830275
 20
0.0597667601448432
 30
0.0
 10
0.4006618915187719
 20
0.063812047652894
 30
0.0
 10
0.3999233951849019
 20
0.0676486738440875
 30
0.0
 10
0.3989312214726881
 20
0.0712291078920934
 30
0.0
 10
0.3978713878122953
 20
0.0746094063846763
 30
0.0
 10
0.3966583801142071
 20
0.0777511644358887
 30
0.0
 10
0.3953231149859565
 20
0.0806690300406901
 30
0.0
 10
0.3938970614911131
 20
0.0833770900704857
 30
0.0
 10
0.3923481543864177
 20
0.0858679145420019
 30
0.0
 10
0.3906947810373912
 20
0.0881526603259049
 30
0.0
 10
0.3888933027225263
 20
0.0901855183793331
 30
0.0
 10
0.3870151778087135
 20
0.0920294935017167
 30
0.0
 10
0.3843845799416405
 20
0.0941343190576854
 30
0.0
 10
0.3809407102644598
 20
0.0962804488011168
 30
0.0
 10
0.3766554485580645
 20
0.0982554787168781
 30
0.0
 10
0.3721959743749489
 20
0.0993896634657327
 30
0.0
 10
0.3691812714579399
 20
0.0995495724042419
 30
0.0
 10
0.36767554969199
 20
0.0996294404296864
 30
0.0
  0
SPLINE
  5
E2
330
1B
100
AcDbEntity
  8
0
  6
Continuous
 62
     7
370
    25
100
AcDbSpline
210
0.0
220
0.0
230
1.0
 70
     8
 71
     3
 72
    15
 73
    11
 74
     0
 42
0.000000001
 43
0.00000001
 40
0.0
 40
0.0
 40
0.0
 40
0.0
 40
0.1105883385953353
 40
0.2245417540535956
 40
0.3425034940501039
 40
0.4643240984173577
 40
0.5907560327017664
 40
0.7222274753555143
 40
0.8588428362087241
 40
1.0
 40
1.0
 40
1.0
 40
1.0
 10
0.3972385986017416
 20
0.0066893977787677
 30
0.0
 10
0.3976540225306299
 20
0.0079189150805918
 30
0.0
 10
0.3984975112641912
 20
0.0104153624917517
 30
0.0
 10
0.399584588991386
 20
0.01428794721933
 30
0.0
 10
0.4004407070702715
 20
0.0183510481617685
 30
0.0
 10
0.4012109183202491
 20
0.0225803834656442
 30
0.0
 10
0.4017366291823496
 20
0.0270071433479663
 30
0.0
 10
0.4021597714375955
 20
0.0316176309037044
 30
0.0
 10
0.4024090110808733
 20
0.0364153223302968
 30
0.0
 10
0.402439906792343
 20
0.0396749676529444
 30
0.0
 10
0.4024556072328742
 20
0.0413314392182993
 30
0.0
  0
SPLINE
  5
E3
330
1B
100
AcDbEntity
  8
0
  6
Continuous
 62
     7
370
    25
100
AcDbSpline
210
0.0
220
0.0
230
1.0
 70
     8
 71
     3
 72
    19
 73
    15
 74
     0
 42
0.000000001
 43
0.00000001
 40
0.0
 40
0.0
 40
0.0
 40
0.0
 40
0.1128134007444582
 40
0.2253938839207301
 40
0.3395948145627007
 40
0.4596754102248634
 40
0.5217351900879318
 40
0.5839258387389149
 40
0.6481741447653689
 40
0.7138810381130669
 40
0.7810044549073893
 40
0.8514509275565553
 40
0.9240506926641772
 40
1.0
 40
1.0
 40
1.0
 40
1.0
 10
0.36767554969199
 20
-0.0169665619930877
 30
0.0
 10
0.3692014422768618
 20
-0.0169036572367275
 30
0.0
 10
0.3722500770479131
 20
-0.0167779775988515
 30
0.0
 10
0.3767041634709189
 20
-0.0155654288833309
 30
0.0
 10
0.3810281898521101
 20
-0.013735919455627
 30
0.0
 10
0.3844168489182082
 20
-0.0115726318406955
 30
0.0
 10
0.3869949018119653
 20
-0.0095124613898579
 30
0.0
 10
0.3888420274066862
 20
-0.0077559791728142
 30
0.0
 10
0.390537383644216
 20
-0.0057892127434276
 30
0.0
 10
0.3921453393471535
 20
-0.0036671932192185
 30
0.0
 10
0.3936201061060071
 20
-0.0013493788816679
 30
0.0
 10
0.3949611745192045
 20
0.0011530847114822
 30
0.0
 10
0.3961849283595648
 20
0.0038471468340095
 30
0.0
 10
0.3968821348930397
 20
0.0057278452243964
 30
0.0
 10
0.3972385986017416
 20
0.0066893977787677
 30
0.0
  0
SPLINE
  5
E4
330
1B
100
AcDbEntity
  8
0
  6
Continuous
 62
     7
370
    25
100
AcDbSpline
210
0.0
220
0.0
230
1.0
 70
     8
 71
     3
 72
    27
 73
    23
 74
     0
 42
0.000000001
 43
0.00000001
 40
0.0
 40
0.0
 40
0.0
 40
0.0
 40
0.0729510658758665
 40
0.141583694186545
 40
0.2059264601708669
 40
0.2653013571846052
 40
0.320597232713928
 40
0.3718165030988102
 40
0.418789769709452
 40
0.4616987286157644
 40
0.5021335821035651
 40
0.5408043152926477
 40
0.5781805253279659
 40
0.6142968652075139
 40
0.6496782432647873
 40
0.6842994600896377
 40
0.7183589527723607
 40
0.7520808646475959
 40
0.8176524386023859
 40
0.8797220764054368
 40
0.9399655597309875
 40
1.0
 40
1.0
 40
1.0
 40
1.0
 10
0.3335579694375987
 20
0.0413314392182993
 30
0.0
 10
0.333562672078052
 20
0.0394909392653917
 30
0.0
 10
0.3335717989797611
 20
0.0359188902575509
 30
0.0
 10
0.3338102320733523
 20
0.0307282106915689
 30
0.0
 10
0.3341350443567964
 20
0.0258868591633344
 30
0.0
 10
0.3345539930648729
 20
0.0213886884363607
 30
0.0
 10
0.3351761563926691
 20
0.0172489241643209
 30
0.0
 10
0.3358732740232865
 20
0.0134390941223866
 30
0.0
 10
0.3367216240082951
 20
0.0099793603777486
 30
0.0
 10
0.3377253648692008
 20
0.0068459820035545
 30
0.0
 10
0.3388686364004394
 20
0.0039857824564934
 30
0.0
 10
0.3401168987496545
 20
0.0013243172939998
 30
0.0
 10
0.3414578720923675
 20
-0.0011698534318183
 30
0.0
 10
0.3429586260511464
 20
-0.0034743262024531
 30
0.0
 10
0.3445930773593747
 20
-0.0055966161265815
 30
0.0
 10
0.3463243080340794
 20
-0.0075742866904513
 30
0.0
 10
0.3482169294609344
 20
-0.0093379473729551
 30
0.0
 10
0.3508351870413757
 20
-0.0114531778859265
 30
0.0
 10
0.3542917411526769
 20
-0.013638970552446
 30
0.0
 10
0.3586468771853976
 20
-0.0155423599158962
 30
0.0
 10
0.3631220130508108
 20
-0.0167385196179556
 30
0.0
 10
0.366159463841635
 20
-0.0168906359941416
 30
0.0
 10
0.36767554969199
 20
-0.0169665619930877
 30
0.0
  0
SPLINE
  5
E5
330
1B
100
AcDbEntity
  8
0
  6
Continuous
 62
     7
370
    25
100
AcDbSpline
210
0.0
220
0.0
230
1.0
 70
     8
 71
     3
 72
    27
 73
    23
 74
     0
 42
0.000000001
 43
0.00000001
 40
0.0
 40
0.0
 40
0.0
 40
0.0
 40
0.0603866193110622
 40
0.1208832485859964
 40
0.1827546186251393
 40
0.2478110297583519
 40
0.2812991000432492
 40
0.3150876241506572
 40
0.3497023955502755
 40
0.3848565811185554
 40
0.4209661972261028
 40
0.4585111882611394
 40
0.4971747221273121
 40
0.5376020478662696
 40
0.5805030184200116
 40
0.6274675400267047
 40
0.6783882095592434
 40
0.7339832205925605
 40
0.793746704550835
 40
0.8577136721607321
 40
0.9266978643613859
 40
0.9999999999999999
 40
0.9999999999999999
 40
0.9999999999999999
 40
0.9999999999999999
 10
0.36767554969199
 20
0.0996294404296864
 30
0.0
 10
0.3661515106334542
 20
0.0995494622152276
 30
0.0
 10
0.3631006560820721
 20
0.09938936008515
 30
0.0
 10
0.3585948310928295
 20
0.0982597044319378
 30
0.0
 10
0.3542757621305343
 20
0.0962906900249451
 30
0.0
 10
0.3508409993479024
 20
0.0941272107940428
 30
0.0
 10
0.348208566808233
 20
0.092066647351458
 30
0.0
 10
0.3463549174626919
 20
0.0902797790814398
 30
0.0
 10
0.3446168791864044
 20
0.0883252021379306
 30
0.0
 10
0.3430157886298044
 20
0.0861833944666567
 30
0.0
 10
0.3415162105513684
 20
0.0838816083517305
 30
0.0
 10
0.3401390053318527
 20
0.0814017357247518
 30
0.0
 10
0.3388981655808272
 20
0.0787312095741454
 30
0.0
 10
0.3377531051012928
 20
0.0758722947938674
 30
0.0
 10
0.3367463024230954
 20
0.0727391867452239
 30
0.0
 10
0.3359158314297886
 20
0.0692837145565049
 30
0.0
 10
0.3351486246140448
 20
0.0654860022813401
 30
0.0
 10
0.334605503791188
 20
0.0613238169291673
 30
0.0
 10
0.3341226787611996
 20
0.056824519552426
 30
0.0
 10
0.3338123894717405
 20
0.0519710818268616
 30
0.0
 10
0.3335710013824008
 20
0.0467716967716506
 30
0.0
 10
0.3335624004232373
 20
0.0431811787203653
 30
0.0
 10
0.3335579694375987
 20
0.0413314392182993
 30
0.0
  0
SPLINE
  5
E6
330
1B
100
AcDbEntity
  8
0
  6
Continuous
 62
     7
370
    25
100
AcDbSpline
210
0.0
220
0.0
230
1.0
 70
     8
 71
     3
 72
    19
 73
    15
 74
     0
 42
0.000000001
 43
0.00000001
 40
0.0
 40
0.0
 40
0.0
 40
0.0
 40
0.0978181896147143
 40
0.1997260534018266
 40
0.3052763574779406
 40
0.4158114905382927
 40
0.4744722311435606
 40
0.5372738797760978
 40
0.6036574205596569
 40
0.6742988630901259
 40
0.7498344853162302
 40
0.8285984767571012
 40
0.9123777781577822
 40
1.0
 40
1.0
 40
1.0
 40
1.0
 10
0.4342545169845399
 20
0.0108574840396198
 30
0.0
 10
0.4343010305674753
 20
0.0122765621187484
 30
0.0
 10
0.4343960024166361
 20
0.0151740484178689
 30
0.0
 10
0.435059128020508
 20
0.0195623959747007
 30
0.0
 10
0.4361246711222126
 20
0.0240525960426774
 30
0.0
 10
0.4373179879077423
 20
0.0278618162630004
 30
0.0
 10
0.4385788386969192
 20
0.0309823486236142
 30
0.0
 10
0.4396281512791078
 20
0.0334982340812615
 30
0.0
 10
0.4409342141153482
 20
0.0360872527125495
 30
0.0
 10
0.4423268669183016
 20
0.0388381832629573
 30
0.0
 10
0.4439314680566656
 20
0.0416801294317969
 30
0.0
 10
0.445676178662505
 20
0.0446605888594097
 30
0.0
 10
0.4476092357847707
 20
0.0477321608146042
 30
0.0
 10
0.4489643603023316
 20
0.0498165779503082
 30
0.0
 10
0.4496571138955029
 20
0.0508821534319073
 30
0.0
  0
SPLINE
  5
E7
330
1B
100
AcDbEntity
  8
0
  6
Continuous
 62
     7
370
    25
100
AcDbSpline
210
0.0
220
0.0
230
1.0
 70
     8
 71
     3
 72
    19
 73
    15
 74
     0
 42
0.000000001
 43
0.00000001
 40
0.0
 40
0.0
 40
0.0
 40
0.0
 40
0.0843347219926264
 40
0.1670523184160739
 40
0.2495660772409647
 40
0.3327404818018457
 40
0.4159148863627264
 40
0.4978280095399952
 40
0.5803725886080509
 40
0.6646001210565033
 40
0.7494666931126172
 40
0.8325102339401407
 40
0.9156392816681743
 40
1.0
 40
1.0
 40
1.0
 40
1.0
 10
0.4759905860336011
 20
-0.0310994107716058
 30
0.0
 10
0.4741363852205064
 20
-0.0310392451911442
 30
0.0
 10
0.4704635380548576
 20
-0.0309200677104166
 30
0.0
 10
0.465060672139995
 20
-0.0298584166130001
 30
0.0
 10
0.4598692147643501
 20
-0.0281376645354909
 30
0.0
 10
0.4549255383506522
 20
-0.0257670236479753
 30
0.0
 10
0.4503459866605768
 20
-0.0227726188073283
 30
0.0
 10
0.446248914360082
 20
-0.0191678046682756
 30
0.0
 10
0.4426547500073821
 20
-0.0150296367520381
 30
0.0
 10
0.4396636231990858
 20
-0.0103587569381838
 30
0.0
 10
0.4372912321775419
 20
-0.0053394672726557
 30
0.0
 10
0.4355121012674517
 20
-0.0001057209581064
 30
0.0
 10
0.434472879092841
 20
0.0053234121807053
 30
0.0
 10
0.4343276603193928
 20
0.0090037719911971
 30
0.0
 10
0.4342545169845399
 20
0.0108574840396198
 30
0.0
  0
SPLINE
  5
E8
330
1B
100
AcDbEntity
  8
0
  6
Continuous
 62
     7
370
    25
100
AcDbSpline
210
0.0
220
0.0
230
1.0
 70
     8
 71
     3
 72
    19
 73
    15
 74
     0
 42
0.000000001
 43
0.00000001
 40
0.0
 40
0.0
 40
0.0
 40
0.0
 40
0.085947943144128
 40
0.1691252118806903
 40
0.2503991071860496
 40
0.3322897361388355
 40
0.4133642879158808
 40
0.4941722833711888
 40
0.5760217353866369
 40
0.6607569692540068
 40
0.745783125913743
 40
0.8300435929752235
 40
0.914027545820682
 40
1.0
 40
1.0
 40
1.0
 40
1.0
 10
0.5190516096556483
 20
0.0111059130220546
 30
0.0
 10
0.5189955819043015
 20
0.0091775782209986
 30
0.0
 10
0.5188853325490395
 20
0.0053830716874495
 30
0.0
 10
0.5177867579025567
 20
-0.0001435702969794
 30
0.0
 10
0.5160796852743941
 20
-0.0054086299636356
 30
0.0
 10
0.5136396251010418
 20
-0.0103280461592412
 30
0.0
 10
0.5106088226213671
 20
-0.0148950764575916
 30
0.0
 10
0.5069128544061001
 20
-0.0189417483245877
 30
0.0
 10
0.50268279581027
 20
-0.02255080491189
 30
0.0
 10
0.4978998510000346
 20
-0.0255687820460603
 30
0.0
 10
0.4927524902080522
 20
-0.0280334690937939
 30
0.0
 10
0.4873449312547314
 20
-0.0298037542151669
 30
0.0
 10
0.4817296892728736
 20
-0.0308936545848886
 30
0.0
 10
0.4779184842313555
 20
-0.0310302924851748
 30
0.0
 10
0.4759905860336011
 20
-0.0310994107716058
 30
0.0
  0
SPLINE
  5
E9
330
1B
100
AcDbEntity
  8
0
  6
Continuous
 62
     7
370
    25
100
AcDbSpline
210
0.0
220
0.0
230
1.0
 70
     8
 71
     3
 72
    23
 73
    19
 74
     0
 42
0.000000001
 43
0.00000001
 40
0.0
 40
0.0
 40
0.0
 40
0.0
 40
0.0652308037420291
 40
0.1284048960032227
 40
0.190067071596477
 40
0.2509433657682807
 40
0.3115458328521424
 40
0.3728628021568293
 40
0.4350236738562384
 40
0.4990717247070435
 40
0.5630910750496626
 40
0.6255101063303748
 40
0.6866800359296498
 40
0.7472825030135124
 40
0.8085634952159589
 40
0.8707421035159857
 40
0.9343409515059123
 40
1.0
 40
1.0
 40
1.0
 40
1.0
 10
0.478171240434974
 20
0.0519310758021879
 30
0.0
 10
0.4795717324166733
 20
0.0518934336094409
 30
0.0
 10
0.4823285592062776
 20
0.0518193360731891
 30
0.0
 10
0.4863760711028914
 20
0.0512491057309906
 30
0.0
 10
0.4902653992908118
 20
0.0503504792773048
 30
0.0
 10
0.4939804233953556
 20
0.0490405479407613
 30
0.0
 10
0.4975344777992757
 20
0.0473672269028758
 30
0.0
 10
0.500947957961029
 20
0.0453617595689984
 30
0.0
 10
0.5041566985163919
 20
0.0429205910510158
 30
0.0
 10
0.5072020205326083
 20
0.0401936242878716
 30
0.0
 10
0.5099668668866615
 20
0.0371732705675901
 30
0.0
 10
0.5124147430897138
 20
0.0339684935319188
 30
0.0
 10
0.5144709159926314
 20
0.0305826320752971
 30
0.0
 10
0.516139180623127
 20
0.0270174011330401
 30
0.0
 10
0.5174346482844607
 20
0.0232782964259322
 30
0.0
 10
0.5183790437586187
 20
0.0193701019578849
 30
0.0
 10
0.5189372954444391
 20
0.0152901227665416
 30
0.0
 10
0.5190131021655059
 20
0.0125153914568494
 30
0.0
 10
0.5190516096556483
 20
0.0111059130220546
 30
0.0
  0
SPLINE
  5
EA
330
1B
100
AcDbEntity
  8
0
  6
Continuous
 62
     7
370
    25
100
AcDbSpline
210
0.0
220
0.0
230
1.0
 70
     8
 71
     3
 72
     9
 73
     5
 74
     0
 42
0.000000001
 43
0.00000001
 40
0.0
 40
0.0
 40
0.0
 40
0.0
 40
0.5126593363417875
 40
0.9999999999999999
 40
0.9999999999999999
 40
0.9999999999999999
 40
0.9999999999999999
 10
0.4639003755551032
 20
0.0506061212292018
 30
0.0
 10
0.4663244022079903
 20
0.0509924936958788
 30
0.0
 10
0.4710527402700341
 20
0.0517461568778155
 30
0.0
 10
0.4758387992670574
 20
0.0518704854387772
 30
0.0
 10
0.4781712404349741
 20
0.0519310758021879
 30
0.0
  0
SPLINE
  5
FF
330
1B
100
AcDbEntity
  8
0
  6
Continuous
 62
     7
370
    25
100
AcDbSpline
210
0.0
220
0.0
230
1.0
 70
     8
 71
     3
 72
    15
 73
    11
 74
     0
 42
0.000000001
 43
0.00000001
 40
0.0
 40
0.0
 40
0.0
 40
0.0
 40
0.0751731173762211
 40
0.164746257511801
 40
0.2680168809877798
 40
0.3859118756529554
 40
0.5177894792733981
 40
0.6636909770022813
 40
0.8244132205366415
 40
1.0
 40
1.0
 40
1.0
 40
1.0
 10
-0.1037874525288864
 20
0.0382950849885396
 30
0.0
 10
-0.10465073339469
 20
0.0381115030563391
 30
0.0
 10
-0.1065426636057377
 20
0.0377091725779389
 30
0.0
 10
-0.109658518809586
 20
0.0372600207336522
 30
0.0
 10
-0.1132862899091852
 20
0.0368766506279259
 30
0.0
 10
-0.1174210253389319
 20
0.0365892042664669
 30
0.0
 10
-0.1220590137216711
 20
0.0363431267679626
 30
0.0
 10
-0.1272027640102436
 20
0.0361475325202982
 30
0.0
 10
-0.1328623733480117
 20
0.0360400579598589
 30
0.0
 10
-0.1368100601227345
 20
0.0360345149362962
 30
0.0
 10
-0.1388711454927466
 20
0.0360316209263551
 30
0.0
  0
SPLINE
  5
100
330
1B
100
AcDbEntity
  8
0
  6
Continuous
 62
     7
370
    25
100
AcDbSpline
210
0.0
220
0.0
230
1.0
 70
     8
 71
     3
 72
    23
 73
    19
 74
     0
 42
0.000000001
 43
0.00000001
 40
0.0
 40
0.0
 40
0.0
 40
0.0
 40
0.0701188944197149
 40
0.1371923527859712
 40
0.2020161807247511
 40
0.2646314069747434
 40
0.3261165471458178
 40
0.3860103046676407
 40
0.4458118469576801
 40
0.5052976967309599
 40
0.5646332777264886
 40
0.6242826253338405
 40
0.6839020319037509
 40
0.7439527709382697
 40
0.8053877310076346
 40
0.8683880308962793
 40
0.9330840282524765
 40
1.0
 40
1.0
 40
1.0
 40
1.0
 10
-0.0762946451394254
 20
0.0732683650713177
 30
0.0
 10
-0.0763112366641876
 20
0.0721353817332278
 30
0.0
 10
-0.0763436991029821
 20
0.0699186233101778
 30
0.0
 10
-0.0767333166356135
 20
0.0666756001531427
 30
0.0
 10
-0.0772581273292637
 20
0.0635764509353633
 30
0.0
 10
-0.0780650978933266
 20
0.060628047373575
 30
0.0
 10
-0.0791220141570433
 20
0.0578478989298441
 30
0.0
 10
-0.0803618587572673
 20
0.0551935197164292
 30
0.0
 10
-0.0818572733387545
 20
0.0527100680668781
 30
0.0
 10
-0.0835755737210577
 20
0.050388528006183
 30
0.0
 10
-0.0854870538152662
 20
0.0482267204347591
 30
0.0
 10
-0.0875836261832685
 20
0.0462403112027628
 30
0.0
 10
-0.089856826675405
 20
0.0444409278003011
 30
0.0
 10
-0.0922994309303799
 20
0.0428245363168213
 30
0.0
 10
-0.0949352517507162
 20
0.0414286198011644
 30
0.0
 10
-0.0977243129149267
 20
0.0401783322056709
 30
0.0
 10
-0.1006908568685456
 20
0.0391282904482499
 30
0.0
 10
-0.1027437117494656
 20
0.0385759258251634
 30
0.0
 10
-0.1037874525288864
 20
0.0382950849885396
 30
0.0
  0
SPLINE
  5
101
330
1B
100
AcDbEntity
  8
0
  6
Continuous
 62
     7
370
    25
100
AcDbSpline
210
0.0
220
0.0
230
1.0
 70
     8
 71
     3
 72
    23
 73
    19
 74
     0
 42
0.000000001
 43
0.00000001
 40
0.0
 40
0.0
 40
0.0
 40
0.0
 40
0.0624813386352046
 40
0.1234903826872903
 40
0.1834110942063115
 40
0.2431532209997794
 40
0.3021267353720876
 40
0.3617096708329063
 40
0.42184229169488
 40
0.4829319014466686
 40
0.5445522544313239
 40
0.6056807199653585
 40
0.6676797383436879
 40
0.7299843875380634
 40
0.7945509212861293
 40
0.8603456197120827
 40
0.9289073562657088
 40
1.0
 40
1.0
 40
1.0
 40
1.0
 10
-0.1026833237180646
 20
0.1081588354932842
 30
0.0
 10
-0.101730822387935
 20
0.1078981288069968
 30
0.0
 10
-0.0998482642299768
 20
0.1073828586613501
 30
0.0
 10
-0.0971356247377867
 20
0.1063508223040412
 30
0.0
 10
-0.0945547646795042
 20
0.1051271150136676
 30
0.0
 10
-0.0920968293076468
 20
0.1037324717124511
 30
0.0
 10
-0.0897920228875336
 20
0.1021070557995715
 30
0.0
 10
-0.0876059582825727
 20
0.1003167558885759
 30
0.0
 10
-0.0855579275622697
 20
0.0983202374408424
 30
0.0
 10
-0.0836594475668296
 20
0.0961398933523607
 30
0.0
 10
-0.0819159515989577
 20
0.0938123260341916
 30
0.0
 10
-0.0804147829876515
 20
0.0913027894236606
 30
0.0
 10
-0.0791578055453971
 20
0.0886535255094937
 30
0.0
 10
-0.0780797239909027
 20
0.0858663770387323
 30
0.0
 10
-0.0773038005866036
 20
0.0829179391060025
 30
0.0
 10
-0.0767192769761526
 20
0.0798286984613495
 30
0.0
 10
-0.0763482680149068
 20
0.0765989862486922
 30
0.0
 10
-0.0763127340875389
 20
0.074391904850233
 30
0.0
 10
-0.0762946451394254
 20
0.0732683650713177
 30
0.0
  0
SPLINE
  5
102
330
1B
100
AcDbEntity
  8
0
  6
Continuous
 62
     7
370
    25
100
AcDbSpline
210
0.0
220
0.0
230
1.0
 70
     8
 71
     3
 72
    15
 73
    11
 74
     0
 42
0.000000001
 43
0.00000001
 40
0.0
 40
0.0
 40
0.0
 40
0.0
 40
0.1769557521312497
 40
0.3390550796425811
 40
0.4863182249420762
 40
0.6187809228353784
 40
0.7356188277673814
 40
0.8387424767201108
 40
0.9264570678763173
 40
0.9999999999999999
 40
0.9999999999999999
 40
0.9999999999999999
 40
0.9999999999999999
 10
-0.1340681851656721
 20
0.1102290770135749
 30
0.0
 10
-0.132209488073087
 20
0.1102270338544866
 30
0.0
 10
-0.1286481418994376
 20
0.1102231190709371
 30
0.0
 10
-0.1235412499423949
 20
0.1101044282903999
 30
0.0
 10
-0.1189030715319091
 20
0.1099458971056454
 30
0.0
 10
-0.1147436077158964
 20
0.109726137531113
 30
0.0
 10
-0.1110500605471334
 20
0.1094664292536522
 30
0.0
 10
-0.1078391432421507
 20
0.1091021757348558
 30
0.0
 10
-0.1050856174022357
 20
0.1087218491382681
 30
0.0
 10
-0.1034357571878059
 20
0.1083351795902605
 30
0.0
 10
-0.1026833237180646
 20
0.1081588354932842
 30
0.0
  0
SPLINE
  5
105
330
1B
100
AcDbEntity
  8
0
  6
Continuous
 62
     7
370
    25
100
AcDbSpline
210
0.0
220
0.0
230
1.0
 70
     8
 71
     3
 72
    23
 73
    19
 74
     0
 42
0.000000001
 43
0.00000001
 40
0.0
 40
0.0
 40
0.0
 40
0.0
 40
0.0645578459297189
 40
0.1270135315497587
 40
0.1879548102020905
 40
0.248013912789634
 40
0.3077476818488372
 40
0.3682345146974851
 40
0.4294698439426693
 40
0.4927434367465851
 40
0.5562577687060832
 40
0.6182167855431434
 40
0.6796554755875547
 40
0.741245545620629
 40
0.8034152647056964
 40
0.8668154615439922
 40
0.9323283119492652
 40
1.0
 40
1.0
 40
1.0
 40
1.0
 10
-0.4402155011862657
 20
0.0421319326061451
 30
0.0
 10
-0.4401542730934677
 20
0.0446104937691876
 30
0.0
 10
-0.4400338106433293
 20
0.0494869081220274
 30
0.0
 10
-0.439010354128694
 20
0.0566433629759296
 30
0.0
 10
-0.4373639448298164
 20
0.0634997172614909
 30
0.0
 10
-0.4350254846489111
 20
0.0700431717728247
 30
0.0
 10
-0.4320607070384631
 20
0.0763081434355044
 30
0.0
 10
-0.428398241926671
 20
0.0822467735475813
 30
0.0
 10
-0.4240806379022058
 20
0.0878970412505942
 30
0.0
 10
-0.4191417572847406
 20
0.0931732125615209
 30
0.0
 10
-0.4137257204619157
 20
0.0979975965230273
 30
0.0
 10
-0.4079257671591986
 20
0.1022419352532764
 30
0.0
 10
-0.4017532495618508
 20
0.1057741209225317
 30
0.0
 10
-0.3952761687872219
 20
0.1087267257424576
 30
0.0
 10
-0.3884460238436536
 20
0.1109961927950498
 30
0.0
 10
-0.3812773872639124
 20
0.1125849009323707
 30
0.0
 10
-0.3737837292016579
 20
0.1135737637784294
 30
0.0
 10
-0.3686710352784562
 20
0.1136987719635801
 30
0.0
 10
-0.366073251539587
 20
0.1137622892082045
 30
0.0
  0
SPLINE
  5
106
330
1B
100
AcDbEntity
  8
0
  6
Continuous
 62
     7
370
    25
100
AcDbSpline
210
0.0
220
0.0
230
1.0
 70
     8
 71
     3
 72
    15
 73
    11
 74
     0
 42
0.000000001
 43
0.00000001
 40
0.0
 40
0.0
 40
0.0
 40
0.0
 40
0.1243285095938499
 40
0.247156016361187
 40
0.3687797492913395
 40
0.4907338624016481
 40
0.6136137718478439
 40
0.7389575757222155
 40
0.8673105751912625
 40
1.0
 40
1.0
 40
1.0
 40
1.0
 10
-0.4227426627550119
 20
-0.0070017994754216
 30
0.0
 10
-0.4241377668298071
 20
-0.0052875794393144
 30
0.0
 10
-0.4269111320592469
 20
-0.0018798349350582
 30
0.0
 10
-0.4304593873171663
 20
0.0036432351932272
 30
0.0
 10
-0.4334966926403661
 20
0.0094097001095981
 30
0.0
 10
-0.4359524375528923
 20
0.0154498547859102
 30
0.0
 10
-0.4378722301967753
 20
0.021750145622149
 30
0.0
 10
-0.4392021985070016
 20
0.0283137485517038
 30
0.0
 10
-0.4400664349037656
 20
0.0351345336777743
 30
0.0
 10
-0.4401652651707408
 20
0.0397737773258016
 30
0.0
 10
-0.4402155011862657
 20
0.0421319326061451
 30
0.0
  0
SPLINE
  5
107
330
1B
100
AcDbEntity
  8
0
  6
Continuous
 62
     7
370
    25
100
AcDbSpline
210
0.0
220
0.0
230
1.0
 70
     8
 71
     3
 72
    23
 73
    19
 74
     0
 42
0.000000001
 43
0.00000001
 40
0.0
 40
0.0
 40
0.0
 40
0.0
 40
0.0696628008990778
 40
0.1377495622582733
 40
0.2039167435177836
 40
0.2687798623293377
 40
0.3324137064772243
 40
0.39475354044714
 40
0.4561800316591689
 40
0.51699564919672
 40
0.5773959379659527
 40
0.6371983435092754
 40
0.6969991842614552
 40
0.7567561942255594
 40
0.8165539052726082
 40
0.8769479965978708
 40
0.9381317879205956
 40
1.0
 40
1.0
 40
1.0
 40
1.0
 10
-0.3659076322179637
 20
-0.0310994107716058
 30
0.0
 10
-0.3673896663540936
 20
-0.031089096104055
 30
0.0
 10
-0.3703202053342803
 20
-0.0310687001262646
 30
0.0
 10
-0.3746469278386949
 20
-0.0307382998344945
 30
0.0
 10
-0.3788591160592322
 20
-0.0302875227907942
 30
0.0
 10
-0.3829447312508347
 20
-0.029608777473315
 30
0.0
 10
-0.3869260688510888
 20
-0.0288078192034769
 30
0.0
 10
-0.3907670367444288
 20
-0.0277341476827989
 30
0.0
 10
-0.3945054308530297
 20
-0.0265314245884626
 30
0.0
 10
-0.3981262316678376
 20
-0.0251178424331583
 30
0.0
 10
-0.4016325190614041
 20
-0.023522717136411
 30
0.0
 10
-0.4050129840758892
 20
-0.0217198998568396
 30
0.0
 10
-0.4082660719656129
 20
-0.0197245508544269
 30
0.0
 10
-0.411423765700072
 20
-0.0175806528062518
 30
0.0
 10
-0.4144394186006634
 20
-0.0152193417089902
 30
0.0
 10
-0.4173391636930811
 20
-0.012673411216721
 30
0.0
 10
-0.4201392611825538
 20
-0.0099514422895023
 30
0.0
 10
-0.4218716503554575
 20
-0.0079886527878344
 30
0.0
 10
-0.4227426627550119
 20
-0.0070017994754216
 30
0.0
  0
SPLINE
  5
108
330
1B
100
AcDbEntity
  8
0
  6
Continuous
 62
     7
370
    25
100
AcDbSpline
210
0.0
220
0.0
230
1.0
 70
     8
 71
     3
 72
    23
 73
    19
 74
     0
 42
0.000000001
 43
0.00000001
 40
0.0
 40
0.0
 40
0.0
 40
0.0
 40
0.0616742388774259
 40
0.123053061634806
 40
0.1834750007317023
 40
0.2437265005106115
 40
0.304278916512254
 40
0.364862920960683
 40
0.4259462039686198
 40
0.4873912299654085
 40
0.5492203840754762
 40
0.6111435886926031
 40
0.6735285303101519
 40
0.7369614566573044
 40
0.8007852828728407
 40
0.8660125956416156
 40
0.9321007477905794
 40
1.0
 40
1.0
 40
1.0
 40
1.0
 10
-0.3059534377903441
 20
-0.0021988391483471
 30
0.0
 10
-0.3068242295179471
 20
-0.0033224002476902
 30
0.0
 10
-0.3085616419299719
 20
-0.005564140652184
 30
0.0
 10
-0.311374949685341
 20
-0.0087244441846272
 30
0.0
 10
-0.3143386228111562
 20
-0.0116970440074277
 30
0.0
 10
-0.3174746743862303
 20
-0.0144579739770137
 30
0.0
 10
-0.3207470283858244
 20
-0.0170624804968893
 30
0.0
 10
-0.3242144422576612
 20
-0.0194365683423893
 30
0.0
 10
-0.3278313333011757
 20
-0.0216133748101991
 30
0.0
 10
-0.3315854466439166
 20
-0.0236065608146121
 30
0.0
 10
-0.3354727936045322
 20
-0.0253749563667572
 30
0.0
 10
-0.3394887162400435
 20
-0.0268888842325843
 30
0.0
 10
-0.343615904252012
 20
-0.0281930137417392
 30
0.0
 10
-0.3478545463154795
 20
-0.0292659246363802
 30
0.0
 10
-0.3522134343795313
 20
-0.0301033688833667
 30
0.0
 10
-0.3566768388713896
 20
-0.0306631986016642
 30
0.0
 10
-0.3612543930138712
 20
-0.0310467385400438
 30
0.0
 10
-0.3643426379400813
 20
-0.0310816958557413
 30
0.0
 10
-0.3659076322179637
 20
-0.0310994107716058
 30
0.0
  0
SPLINE
  5
10A
330
1B
100
AcDbEntity
  8
0
  6
Continuous
 62
     7
370
    25
100
AcDbSpline
210
0.0
220
0.0
230
1.0
 70
     8
 71
     3
 72
    15
 73
    11
 74
     0
 42
0.000000001
 43
0.00000001
 40
0.0
 40
0.0
 40
0.0
 40
0.0
 40
0.1285151895116617
 40
0.2529486363526577
 40
0.3747547340060044
 40
0.4959397538670499
 40
0.617180641429892
 40
0.7409094692781376
 40
0.8678111481862024
 40
1.0
 40
1.0
 40
1.0
 40
1.0
 10
-0.3659904418787753
 20
-0.0169665619930877
 30
0.0
 10
-0.3635848242018626
 20
-0.0169000746013197
 30
0.0
 10
-0.3588499931420232
 20
-0.0167692115092116
 30
0.0
 10
-0.3519063700577201
 20
-0.0156605796539807
 30
0.0
 10
-0.3452592926707602
 20
-0.0138630238337042
 30
0.0
 10
-0.3389084034368461
 20
-0.0113473576006656
 30
0.0
 10
-0.3328716063421673
 20
-0.008077070675361
 30
0.0
 10
-0.3271394543614975
 20
-0.0041125873128646
 30
0.0
 10
-0.3217071090660664
 20
0.000583803740703
 30
0.0
 10
-0.3184405231512479
 20
0.0041697536720883
 30
0.0
 10
-0.3167739001363969
 20
0.0059993172720042
 30
0.0
  0
SPLINE
  5
10B
330
1B
100
AcDbEntity
  8
0
  6
Continuous
 62
     7
370
    25
100
AcDbSpline
210
0.0
220
0.0
230
1.0
 70
     8
 71
     3
 72
    23
 73
    19
 74
     0
 42
0.000000001
 43
0.00000001
 40
0.0
 40
0.0
 40
0.0
 40
0.0
 40
0.0643232165798421
 40
0.1262901037035559
 40
0.1867264692161329
 40
0.2461464323353445
 40
0.3055756426461386
 40
0.3654293856180522
 40
0.4263263089482599
 40
0.4888399064006412
 40
0.5517249718140474
 40
0.6139185964661595
 40
0.6754837657683964
 40
0.7373338970992861
 40
0.8002290443945267
 40
0.864502298123323
 40
0.9310407391556971
 40
1.0
 40
1.0
 40
1.0
 40
1.0
 10
-0.4278492585050624
 20
0.0411934231169466
 30
0.0
 10
-0.4277995805907355
 20
0.039156756978257
 30
0.0
 10
-0.4277020445954027
 20
0.0351580331652871
 30
0.0
 10
-0.4268339999465658
 20
0.0293009225140571
 30
0.0
 10
-0.4255149018643358
 20
0.0236898723652275
 30
0.0
 10
-0.4235379106463948
 20
0.0183599573136164
 30
0.0
 10
-0.4211001527503129
 20
0.0132454550278683
 30
0.0
 10
-0.4180198137146702
 20
0.0084329017441507
 30
0.0
 10
-0.4144522335034813
 20
0.0038495724326726
 30
0.0
 10
-0.4103469413987129
 20
-0.0003962129117541
 30
0.0
 10
-0.4058427754148847
 20
-0.0042747060337265
 30
0.0
 10
-0.401010180470242
 20
-0.0076900832585814
 30
0.0
 10
-0.3958611927622067
 20
-0.0105371258753681
 30
0.0
 10
-0.3904526640147028
 20
-0.0129062576279789
 30
0.0
 10
-0.3847429744903481
 20
-0.01472738863804
 30
0.0
 10
-0.3787423917181485
 20
-0.0160094407444675
 30
0.0
 10
-0.3724639667083028
 20
-0.0168457470650036
 30
0.0
 10
-0.368173832854365
 20
-0.0169258135244185
 30
0.0
 10
-0.3659904418787753
 20
-0.0169665619930877
 30
0.0
  0
SPLINE
  5
10C
330
1B
100
AcDbEntity
  8
0
  6
Continuous
 62
     7
370
    25
100
AcDbSpline
210
0.0
220
0.0
230
1.0
 70
     8
 71
     3
 72
    31
 73
    27
 74
     0
 42
0.000000001
 43
0.00000001
 40
0.0
 40
0.0
 40
0.0
 40
0.0
 40
0.0439549089061949
 40
0.0875018747976052
 40
0.1304626267314905
 40
0.1727520205665181
 40
0.2154030673796033
 40
0.2576498297432399
 40
0.3001527489572942
 40
0.343121489502087
 40
0.3859251632064336
 40
0.4276857274028022
 40
0.4688179504865899
 40
0.5094918001549961
 40
0.5498830310733492
 40
0.5899800229668862
 40
0.63040523000684
 40
0.6708686260826384
 40
0.7113839438381759
 40
0.7516272580635844
 40
0.7917755768651915
 40
0.8324589188037423
 40
0.8733190450172882
 40
0.9145429556263492
 40
0.9569235582098846
 40
1.0
 40
1.0
 40
1.0
 40
1.0
 10
-0.3668461417071621
 20
0.0996294404296864
 30
0.0
 10
-0.3682273739646586
 20
0.0996135363938659
 30
0.0
 10
-0.3709770193414652
 20
0.0995818759266787
 30
0.0
 10
-0.3750576679044767
 20
0.0991641938319965
 30
0.0
 10
-0.3790621187364202
 20
0.0985771383184309
 30
0.0
 10
-0.3829877670127443
 20
0.0977060626009723
 30
0.0
 10
-0.3868296157741326
 20
0.0966047783853226
 30
0.0
 10
-0.3906127812097874
 20
0.0952888172072244
 30
0.0
 10
-0.3942824898632166
 20
0.0936606739056518
 30
0.0
 10
-0.3978895071157452
 20
0.0918611361120729
 30
0.0
 10
-0.4013453815643796
 20
0.0898285595473756
 30
0.0
 10
-0.4046152653351405
 20
0.0876114984496777
 30
0.0
 10
-0.4076872325761319
 20
0.0852347623693716
 30
0.0
 10
-0.410563713368777
 20
0.0826894432206392
 30
0.0
 10
-0.4132476483426148
 20
0.0799870038318387
 30
0.0
 10
-0.4157195897128984
 20
0.0770986439267567
 30
0.0
 10
-0.4179709838178348
 20
0.07403359772529
 30
0.0
 10
-0.4200464572455275
 20
0.0708322824670872
 30
0.0
 10
-0.4219052262752422
 20
0.0675040229539027
 30
0.0
 10
-0.4234615207394504
 20
0.064036500495694
 30
0.0
 10
-0.4248396751569948
 20
0.0604890948645496
 30
0.0
 10
-0.4259301965210118
 20
0.0568217263279864
 30
0.0
 10
-0.4267933664750023
 20
0.0530602001136856
 30
0.0
 10
-0.4273889437692335
 20
0.0491944210605369
 30
0.0
 10
-0.4278018757060171
 20
0.0452324651708815
 30
0.0
 10
-0.4278333787336049
 20
0.0425470591624397
 30
0.0
 10
-0.4278492585050624
 20
0.0411934231169466
 30
0.0
  0
SPLINE
  5
10D
330
1B
100
AcDbEntity
  8
0
  6
Continuous
 62
     7
370
    25
100
AcDbSpline
210
0.0
220
0.0
230
1.0
 70
     8
 71
     3
 72
    19
 73
    15
 74
     0
 42
0.000000001
 43
0.00000001
 40
0.0
 40
0.0
 40
0.0
 40
0.0
 40
0.0631632593634701
 40
0.1254749410306406
 40
0.1871212198160326
 40
0.2482943461142987
 40
0.3092948562551213
 40
0.3698500660670937
 40
0.4309733755473823
 40
0.4924559896728175
 40
0.6161479662918559
 40
0.7408436984673633
 40
0.8681826486700441
 40
0.9999999999999999
 40
0.9999999999999999
 40
0.9999999999999999
 40
0.9999999999999999
 10
-0.3167739001363969
 20
0.0766635611645945
 30
0.0
 10
-0.3175457855047515
 20
0.0775834812366863
 30
0.0
 10
-0.3190791495529769
 20
0.079410918863589
 30
0.0
 10
-0.3215460472901385
 20
0.0819770426618126
 30
0.0
 10
-0.3241169781128215
 20
0.0843811868123133
 30
0.0
 10
-0.3267909592630575
 20
0.0866348041205382
 30
0.0
 10
-0.3296161214475834
 20
0.0886590862360797
 30
0.0
 10
-0.3325240269068712
 20
0.0905595233598169
 30
0.0
 10
-0.3355633200252408
 20
0.0922629776095227
 30
0.0
 10
-0.3397661442238798
 20
0.0943284495038512
 30
0.0
 10
-0.3452640910065713
 20
0.096483809937403
 30
0.0
 10
-0.3521851476629935
 20
0.0982910237681196
 30
0.0
 10
-0.3594099940600292
 20
0.0994414637556907
 30
0.0
 10
-0.3643390334154225
 20
0.0995660638131382
 30
0.0
 10
-0.3668461417071621
 20
0.0996294404296864
 30
0.0
  0
SPLINE
  5
10F
330
1B
100
AcDbEntity
  8
0
  6
Continuous
 62
     7
370
    25
100
AcDbSpline
210
0.0
220
0.0
230
1.0
 70
     8
 71
     3
 72
    23
 73
    19
 74
     0
 42
0.000000001
 43
0.00000001
 40
0.0
 40
0.0
 40
0.0
 40
0.0
 40
0.0685475367089032
 40
0.135682945623048
 40
0.2012149895263284
 40
0.2656822347546961
 40
0.3292668348172589
 40
0.3923954278443283
 40
0.4550697616521435
 40
0.5171268500645065
 40
0.5787900352866524
 40
0.6397398633435415
 40
0.7001915036663081
 40
0.7598062425966706
 40
0.819628319275008
 40
0.8793547910462765
 40
0.9395116077646614
 40
1.0
 40
1.0
 40
1.0
 40
1.0
 10
-0.366073251539587
 20
0.1137622892082045
 30
0.0
 10
-0.364490004612563
 20
0.1137433073896664
 30
0.0
 10
-0.3613561267663101
 20
0.1137057347914931
 30
0.0
 10
-0.356720195568973
 20
0.113339351243673
 30
0.0
 10
-0.3522067181302633
 20
0.1127285793449674
 30
0.0
 10
-0.3478125849793047
 20
0.1118972380137427
 30
0.0
 10
-0.3435164189870642
 20
0.1108654537039167
 30
0.0
 10
-0.3393510551729474
 20
0.1095213474709802
 30
0.0
 10
-0.3352920517530813
 20
0.1079844761593423
 30
0.0
 10
-0.331365008124088
 20
0.1062144578153308
 30
0.0
 10
-0.327588765992579
 20
0.104227578232384
 30
0.0
 10
-0.3239645014842617
 20
0.1020458607699312
 30
0.0
 10
-0.3205210031099444
 20
0.0996720101595203
 30
0.0
 10
-0.317234040573072
 20
0.0971262158520541
 30
0.0
 10
-0.3141585991921249
 20
0.0943546190294003
 30
0.0
 10
-0.3112073598797154
 20
0.0914334538335865
 30
0.0
 10
-0.3084805457788649
 20
0.0882785788667623
 30
0.0
 10
-0.3067973491255533
 20
0.086057912177434
 30
0.0
 10
-0.3059534377903441
 20
0.0849445272457575
 30
0.0
  0
CIRCLE
  5
110
330
1B
100
AcDbEntity
  8
0
  6
Continuous
 62
     7
370
    25
100
AcDbCircle
 10
-1.25
 20
-0.5
 30
0.0
 40
0.1875000000000002
  0
CIRCLE
  5
111
330
1B
100
AcDbEntity
  8
0
  6
Continuous
 62
     7
370
    25
100
AcDbCircle
 10
1.25
 20
-0.5
 30
0.0
 40
0.1874999999999998
  0
CIRCLE
  5
112
330
1B
100
AcDbEntity
  8
0
  6
Continuous
 62
     7
370
    25
100
AcDbCircle
 10
1.25
 20
0.5
 30
0.0
 40
0.1875
  0
CIRCLE
  5
113
330
1B
100
AcDbEntity
  8
0
  6
Continuous
 62
     7
370
    25
100
AcDbCircle
 10
-1.25
 20
0.5
 30
0.0
 40
0.1874999999999998
  0
SPLINE
  5
124
330
1B
100
AcDbEntity
  8
0
  6
Continuous
 62
     7
370
    25
100
AcDbSpline
210
0.0
220
0.0
230
1.0
 70
     8
 71
     3
 72
    23
 73
    19
 74
     0
 42
0.000000001
 43
0.00000001
 40
0.0
 40
0.0
 40
0.0
 40
0.0
 40
0.0642168426314302
 40
0.1270637656931292
 40
0.1887445383478299
 40
0.2491321028350409
 40
0.3094525327106279
 40
0.3698266762476818
 40
0.4306501418384683
 40
0.4923519318794691
 40
0.5540721062625169
 40
0.6156897837449749
 40
0.6767977025065386
 40
0.7384390482469418
 40
0.8013169100648931
 40
0.8651845117115416
 40
0.9316413244190757
 40
1.0
 40
1.0
 40
1.0
 40
1.0
 10
-0.2188928810570511
 20
0.108352058035178
 30
0.0
 10
-0.2178847462485143
 20
0.108102972784565
 30
0.0
 10
-0.2158899828834852
 20
0.1076101159478758
 30
0.0
 10
-0.2130179330393949
 20
0.1065683993800157
 30
0.0
 10
-0.2102811486318462
 20
0.1053629023475472
 30
0.0
 10
-0.2076909980679989
 20
0.1039470078468354
 30
0.0
 10
-0.2052604551077464
 20
0.1023102054975233
 30
0.0
 10
-0.2029644586197674
 20
0.1004807518583443
 30
0.0
 10
-0.2007925899827606
 20
0.0984686571429714
 30
0.0
 10
-0.1988326832827464
 20
0.0962231909420792
 30
0.0
 10
-0.1969846891215438
 20
0.0938674228444416
 30
0.0
 10
-0.1954260817790014
 20
0.0913200308428204
 30
0.0
 10
-0.1940825195852025
 20
0.0886561911765204
 30
0.0
 10
-0.1930128141914959
 20
0.0858488125247299
 30
0.0
 10
-0.1921514766531827
 20
0.0829251207191149
 30
0.0
 10
-0.1915441443944839
 20
0.0798586326589887
 30
0.0
 10
-0.1911799244090191
 20
0.0766633186793072
 30
0.0
 10
-0.1911428434817152
 20
0.0744838734512908
 30
0.0
 10
-0.1911240414648848
 20
0.0733787779523999
 30
0.0
  0
SPLINE
  5
125
330
1B
100
AcDbEntity
  8
0
  6
Continuous
 62
     7
370
    25
100
AcDbSpline
210
0.0
220
0.0
230
1.0
 70
     8
 71
     3
 72
    15
 73
    11
 74
     0
 42
0.000000001
 43
0.00000001
 40
0.0
 40
0.0
 40
0.0
 40
0.0
 40
0.1762577548178006
 40
0.3384344138804758
 40
0.4848220507878367
 40
0.6171575782663319
 40
0.734698360612477
 40
0.8373851838323607
 40
0.926372420929584
 40
1.0
 40
1.0
 40
1.0
 40
1.0
 10
-0.2501121231830354
 20
0.1102290770135749
 30
0.0
 10
-0.2482719212730519
 20
0.1102229515809751
 30
0.0
 10
-0.244738529760884
 20
0.11021119007185
 30
0.0
 10
-0.2396765899829456
 20
0.1101456088549938
 30
0.0
 10
-0.235077097975064
 20
0.1099576420948272
 30
0.0
 10
-0.2309424586318696
 20
0.1097958868398224
 30
0.0
 10
-0.2272727478060308
 20
0.1095009285200136
 30
0.0
 10
-0.2240567127372139
 20
0.1092190132790764
 30
0.0
 10
-0.2213091655914969
 20
0.1088499715161257
 30
0.0
 10
-0.2196459430992695
 20
0.1085072383285024
 30
0.0
 10
-0.2188928810570511
 20
0.108352058035178
 30
0.0
  0
SPLINE
  5
12E
330
1B
100
AcDbEntity
  8
0
  6
Continuous
 62
     7
370
    25
100
AcDbSpline
210
0.0
220
0.0
230
1.0
 70
     8
 71
     3
 72
    23
 73
    19
 74
     0
 42
0.000000001
 43
0.00000001
 40
0.0
 40
0.0
 40
0.0
 40
0.0
 40
0.0619654006870625
 40
0.1221219056382957
 40
0.1809884968498415
 40
0.2399332164519025
 40
0.2999058311065245
 40
0.3599888474769871
 40
0.4217757417416465
 40
0.4865758264211278
 40
0.551534804619743
 40
0.6150175427599812
 40
0.6772586166616574
 40
0.7397299623627148
 40
0.8030501026629525
 40
0.8664951320156992
 40
0.9319734741771512
 40
1.0
 40
1.0
 40
1.0
 40
1.0
 10
0.2310948157933426
 20
0.0716949815158968
 30
0.0
 10
0.2310697865689561
 20
0.0726351940517554
 30
0.0
 10
0.2310204587740118
 20
0.0744881724124368
 30
0.0
 10
0.2305851163529957
 20
0.0772049345785241
 30
0.0
 10
0.2299272224122672
 20
0.0798255965397758
 30
0.0
 10
0.2289844957174666
 20
0.0823582193396905
 30
0.0
 10
0.2277401358715872
 20
0.0847773394997763
 30
0.0
 10
0.2262254358748313
 20
0.0870859017125165
 30
0.0
 10
0.2244777955827895
 20
0.0893177507361417
 30
0.0
 10
0.222456092065826
 20
0.0914104002659871
 30
0.0
 10
0.2202351660891889
 20
0.0933269831589975
 30
0.0
 10
0.2178889357905578
 20
0.0950247817973584
 30
0.0
 10
0.21540664822127
 20
0.0964436444272333
 30
0.0
 10
0.2127987693954503
 20
0.0976067742374863
 30
0.0
 10
0.2100725698124442
 20
0.0985191908200194
 30
0.0
 10
0.2072227766973894
 20
0.0991514183563622
 30
0.0
 10
0.2042572642453224
 20
0.0995483665432376
 30
0.0
 10
0.2022323234701003
 20
0.0996020740986851
 30
0.0
 10
0.2012005282403445
 20
0.0996294404296864
 30
0.0
  0
SPLINE
  5
12F
330
1B
100
AcDbEntity
  8
0
  6
Continuous
 62
     7
370
    25
100
AcDbSpline
210
0.0
220
0.0
230
1.0
 70
     8
 71
     3
 72
    19
 73
    15
 74
     0
 42
0.000000001
 43
0.00000001
 40
0.0
 40
0.0
 40
0.0
 40
0.0
 40
0.1108026438013196
 40
0.2128292023477697
 40
0.3061013098231107
 40
0.3906473211160095
 40
0.4669244693608519
 40
0.5344810392840313
 40
0.593586940965672
 40
0.6445570045087168
 40
0.7362004526293726
 40
0.8250240256188645
 40
0.9119855848297583
 40
1.0
 40
1.0
 40
1.0
 40
1.0
 10
0.20503737585795
 20
0.0294620545019658
 30
0.0
 10
0.206338473763771
 20
0.0308202555471866
 30
0.0
 10
0.2088376165637279
 20
0.0334290817914463
 30
0.0
 10
0.2123723636822001
 20
0.0372378597494788
 30
0.0
 10
0.2155471270015863
 20
0.0407713062357826
 30
0.0
 10
0.2183824574256737
 20
0.0440227451509198
 30
0.0
 10
0.2208168474007062
 20
0.047039736009011
 30
0.0
 10
0.2229771714931384
 20
0.0497245668589225
 30
0.0
 10
0.2247081002719601
 20
0.0521952145088403
 30
0.0
 10
0.2265866591573014
 20
0.0550590182061839
 30
0.0
 10
0.2284061072438458
 20
0.0585555661264223
 30
0.0
 10
0.2299695858281134
 20
0.0628285460185895
 30
0.0
 10
0.2309229263182166
 20
0.0672272567538646
 30
0.0
 10
0.231037289920808
 20
0.0701997778974579
 30
0.0
 10
0.2310948157933426
 20
0.0716949815158968
 30
0.0
  0
SPLINE
  5
135
330
1B
100
AcDbEntity
  8
0
  6
Continuous
 62
     7
370
    25
100
AcDbSpline
210
0.0
220
0.0
230
1.0
 70
     8
 71
     3
 72
    19
 73
    15
 74
     0
 42
0.000000001
 43
0.00000001
 40
0.0
 40
0.0
 40
0.0
 40
0.0
 40
0.0987021963061526
 40
0.1956723088106642
 40
0.2924224265079543
 40
0.3913425437998245
 40
0.4444624406718922
 40
0.504228775449316
 40
0.5703523379946781
 40
0.6425457530977482
 40
0.722287505344018
 40
0.8079211226827112
 40
0.9004695379850143
 40
1.0
 40
1.0
 40
1.0
 40
1.0
 10
0.2434610584745459
 20
0.0727991103267185
 30
0.0
 10
0.2433943945825584
 20
0.0708799042410954
 30
0.0
 10
0.2432622366555046
 20
0.0670751714194213
 30
0.0
 10
0.2421317493890708
 20
0.0614840350907131
 30
0.0
 10
0.2403661387160214
 20
0.0560669713471433
 30
0.0
 10
0.2382402585251024
 20
0.051707235044606
 30
0.0
 10
0.2360956741132251
 20
0.0481941053691324
 30
0.0
 10
0.2341630950741052
 20
0.0453016366715047
 30
0.0
 10
0.2319007009393885
 20
0.042187248152237
 30
0.0
 10
0.2292755632243218
 20
0.0388613687280657
 30
0.0
 10
0.2263419855805923
 20
0.0352979472674925
 30
0.0
 10
0.2230733964720631
 20
0.0314991364250354
 30
0.0
 10
0.2194464877310633
 20
0.0275041848573168
 30
0.0
 10
0.2169008774651444
 20
0.024775617873544
 30
0.0
 10
0.2155818060012974
 20
0.0233617428221758
 30
0.0
  0
SPLINE
  5
136
330
1B
100
AcDbEntity
  8
0
  6
Continuous
 62
     7
370
    25
100
AcDbSpline
210
0.0
220
0.0
230
1.0
 70
     8
 71
     3
 72
    23
 73
    19
 74
     0
 42
0.000000001
 43
0.00000001
 40
0.0
 40
0.0
 40
0.0
 40
0.0
 40
0.0694754602496705
 40
0.1365167976177981
 40
0.20078882360926
 40
0.263829672855826
 40
0.32573502296542
 40
0.3872906922152901
 40
0.4495092187626032
 40
0.512967819545441
 40
0.5762752154930608
 40
0.637580100263924
 40
0.6979026059171024
 40
0.7571720884269852
 40
0.8165985284886557
 40
0.8766531708928198
 40
0.9372896424102403
 40
0.9999999999999999
 40
0.9999999999999999
 40
0.9999999999999999
 40
0.9999999999999999
 10
0.2018354023065669
 20
0.1137622892082045
 30
0.0
 10
0.2033463501052813
 20
0.1137269169072034
 30
0.0
 10
0.2063153085563211
 20
0.1136574115992905
 30
0.0
 10
0.2106484587316314
 20
0.1130605206832578
 30
0.0
 10
0.2147735490648356
 20
0.1121256548708448
 30
0.0
 10
0.2186825162507371
 20
0.1108140243073293
 30
0.0
 10
0.2223441723362194
 20
0.1090508578745525
 30
0.0
 10
0.225786024484107
 20
0.1069328445415544
 30
0.0
 10
0.2290490485309971
 20
0.1044832448812331
 30
0.0
 10
0.2319863234763575
 20
0.101599236477753
 30
0.0
 10
0.234683491950226
 20
0.0985204024434869
 30
0.0
 10
0.2370103523889769
 20
0.0952334771044257
 30
0.0
 10
0.2390029966202104
 20
0.091838623336118
 30
0.0
 10
0.2406639288989967
 20
0.0883099539825151
 30
0.0
 10
0.2418866115343958
 20
0.0846142442024879
 30
0.0
 10
0.2428148874410637
 20
0.0808052992106908
 30
0.0
 10
0.2433395887673665
 20
0.0768436924781489
 30
0.0
 10
0.2434201172515339
 20
0.0741623320195763
 30
0.0
 10
0.2434610584745459
 20
0.0727991103267185
 30
0.0
  0
SPLINE
  5
137
330
1B
100
AcDbEntity
  8
0
  6
Continuous
 62
     7
370
    25
100
AcDbSpline
210
0.0
220
0.0
230
1.0
 70
     8
 71
     3
 72
    23
 73
    19
 74
     0
 42
0.000000001
 43
0.00000001
 40
0.0
 40
0.0
 40
0.0
 40
0.0
 40
0.0687907943906181
 40
0.1351032894311276
 40
0.1989786743106511
 40
0.2619042997808561
 40
0.3234949693679692
 40
0.3851953779660511
 40
0.4469692387407744
 40
0.5097647767031315
 40
0.5722505688473688
 40
0.6334051756611522
 40
0.6932511629217518
 40
0.7525831627856703
 40
0.8125792661534214
 40
0.8732750849201915
 40
0.9355499428950295
 40
1.0
 40
1.0
 40
1.0
 40
1.0
 10
0.1568973597061228
 20
0.0678305306780207
 30
0.0
 10
0.1569779562812381
 20
0.0694711168106111
 30
0.0
 10
0.1571362458098215
 20
0.0726931843135601
 30
0.0
 10
0.1578775170405986
 20
0.0773909759040754
 30
0.0
 10
0.1589381814974831
 20
0.0818813223105662
 30
0.0
 10
0.1604378450413733
 20
0.0861281693172455
 30
0.0
 10
0.1623002969220726
 20
0.0901690672396993
 30
0.0
 10
0.1645337625669896
 20
0.0939879654952616
 30
0.0
 10
0.1671791897525575
 20
0.0975702957596161
 30
0.0
 10
0.1701794548724561
 20
0.1008828486452645
 30
0.0
 10
0.1734380627092674
 20
0.1039217293853957
 30
0.0
 10
0.1769540445782058
 20
0.106545951543119
 30
0.0
 10
0.1806487306918399
 20
0.1087631826991021
 30
0.0
 10
0.1845109117534697
 20
0.1106167748968913
 30
0.0
 10
0.1885841622873064
 20
0.1120081074135262
 30
0.0
 10
0.1928315188951585
 20
0.1130404554294552
 30
0.0
 10
0.197271642375845
 20
0.1136615714027455
 30
0.0
 10
0.2002968400942283
 20
0.1137283346155131
 30
0.0
 10
0.2018354023065669
 20
0.1137622892082045
 30
0.0
  0
SPLINE
  5
139
330
1B
100
AcDbEntity
  8
0
  6
Continuous
 62
     7
370
    25
100
AcDbSpline
210
0.0
220
0.0
230
1.0
 70
     8
 71
     3
 72
    23
 73
    19
 74
     0
 42
0.000000001
 43
0.00000001
 40
0.0
 40
0.0
 40
0.0
 40
0.0
 40
0.0644386715952452
 40
0.1265469112716777
 40
0.1868871534365718
 40
0.245877535589456
 40
0.3040408846912677
 40
0.3621912180726624
 40
0.4209759327916456
 40
0.480660283279667
 40
0.5406002749537578
 40
0.6006890983494533
 40
0.6619357897571961
 40
0.7244425059139831
 40
0.7890383938817436
 40
0.8563137570509944
 40
0.9263520282058634
 40
1.0
 40
1.0
 40
1.0
 40
1.0
 10
0.2012005282403445
 20
0.0996294404296864
 30
0.0
 10
0.2001229363995442
 20
0.0996012895531536
 30
0.0
 10
0.1980067239499553
 20
0.0995460058797535
 30
0.0
 10
0.1948996754091467
 20
0.0991592868249493
 30
0.0
 10
0.1919356684200182
 20
0.0984921277542038
 30
0.0
 10
0.1891072470439191
 20
0.0975796602586519
 30
0.0
 10
0.1864096255552291
 20
0.0964198748719462
 30
0.0
 10
0.1838559230340746
 20
0.0949753179948294
 30
0.0
 10
0.1814518722758101
 20
0.0932515584218945
 30
0.0
 10
0.1791929540338616
 20
0.0912972058107118
 30
0.0
 10
0.1771116950156118
 20
0.089121315999061
 30
0.0
 10
0.1752830778555758
 20
0.0866957269019372
 30
0.0
 10
0.1736852820231491
 20
0.0840647262967761
 30
0.0
 10
0.1722912177129209
 20
0.0812354132822347
 30
0.0
 10
0.1711591039301348
 20
0.0781821148576477
 30
0.0
 10
0.1702940192674929
 20
0.0749156697848741
 30
0.0
 10
0.1696094977430199
 20
0.071450261066821
 30
0.0
 10
0.1693808158294432
 20
0.0690571474897906
 30
0.0
 10
0.169263602387326
 20
0.0678305306780207
 30
0.0
  0
SPLINE
  5
13A
330
1B
100
AcDbEntity
  8
0
  6
Continuous
 62
     7
370
    25
100
AcDbSpline
210
0.0
220
0.0
230
1.0
 70
     8
 71
     3
 72
    31
 73
    27
 74
     0
 42
0.000000001
 43
0.00000001
 40
0.0
 40
0.0
 40
0.0
 40
0.0
 40
0.0650632896172791
 40
0.1267731664665229
 40
0.1855157632260791
 40
0.2407646791677152
 40
0.2929797960235983
 40
0.3422503727797676
 40
0.3889192861856606
 40
0.4327756640583105
 40
0.4746284326311181
 40
0.514774690637954
 40
0.5536058934984428
 40
0.591426406431173
 40
0.6280281199460673
 40
0.6638036341103204
 40
0.6989843361316642
 40
0.733591489306706
 40
0.7676284691511404
 40
0.8012083477865922
 40
0.8342638397266241
 40
0.8669806947287765
 40
0.8997197415181609
 40
0.9327019124985387
 40
0.9661758834327498
 40
1.0
 40
1.0
 40
1.0
 40
1.0
 10
0.4148218499140775
 20
0.0412762327777583
 30
0.0
 10
0.4147961969792774
 20
0.0391689923076439
 30
0.0
 10
0.4147462132819744
 20
0.0350631201872177
 30
0.0
 10
0.414487209078521
 20
0.0290579636785645
 30
0.0
 10
0.4139770267486499
 20
0.0233887493754716
 30
0.0
 10
0.4133388382325562
 20
0.0180418807747347
 30
0.0
 10
0.4124549420525002
 20
0.0130396123167442
 30
0.0
 10
0.4113681244835522
 20
0.008364634030606
 30
0.0
 10
0.4101614188606479
 20
0.0039967571933845
 30
0.0
 10
0.4086718600374272
 20
-0.0000282353896847
 30
0.0
 10
0.407041517110371
 20
-0.0037664921953851
 30
0.0
 10
0.405267690489293
 20
-0.0072573248067905
 30
0.0
 10
0.4033673036355262
 20
-0.0105315882981149
 30
0.0
 10
0.4012968806039109
 20
-0.0135630743977668
 30
0.0
 10
0.399090053312713
 20
-0.0163732577470923
 30
0.0
 10
0.3966995891870048
 20
-0.0189125342294362
 30
0.0
 10
0.3941928732381076
 20
-0.0212420882437332
 30
0.0
 10
0.3915388411186608
 20
-0.0233149869627158
 30
0.0
 10
0.3887667328024343
 20
-0.025129349349974
 30
0.0
 10
0.3859336982778322
 20
-0.0267519418849276
 30
0.0
 10
0.3829894705869944
 20
-0.0280603157057877
 30
0.0
 10
0.3800007716606357
 20
-0.0291837425159355
 30
0.0
 10
0.3769248517348504
 20
-0.030042028023264
 30
0.0
 10
0.3737655450147935
 20
-0.0306354869020277
 30
0.0
 10
0.370538921553034
 20
-0.0310517014081213
 30
0.0
 10
0.368357757573457
 20
-0.0310834525843144
 30
0.0
 10
0.3672615013879318
 20
-0.0310994107716058
 30
0.0
  0
SPLINE
  5
13B
330
1B
100
AcDbEntity
  8
0
  6
Continuous
 62
     7
370
    25
100
AcDbSpline
210
0.0
220
0.0
230
1.0
 70
     8
 71
     3
 72
    31
 73
    27
 74
     0
 42
0.000000001
 43
0.00000001
 40
0.0
 40
0.0
 40
0.0
 40
0.0
 40
0.0337881161627101
 40
0.0671939323738796
 40
0.0998624108568249
 40
0.1325666121262584
 40
0.1651511732547857
 40
0.1979131873557922
 40
0.2313190035669616
 40
0.2650832782673732
 40
0.2992553087581148
 40
0.3343985665049782
 40
0.3699428235093072
 40
0.4062835607000606
 40
0.4440638196985082
 40
0.4829977068727752
 40
0.5233544466133042
 40
0.5655365896041491
 40
0.6096129240658194
 40
0.6563908113764172
 40
0.705885494936457
 40
0.758324500261731
 40
0.81383178294115
 40
0.8727945590393899
 40
0.9347222295400739
 40
1.0
 40
1.0
 40
1.0
 40
1.0
 10
0.3672615013879318
 20
0.1137622892082045
 30
0.0
 10
0.3683573863676303
 20
0.1137430838863279
 30
0.0
 10
0.3705367567965941
 20
0.1137048905436397
 30
0.0
 10
0.3737588188141498
 20
0.1133378061918835
 30
0.0
 10
0.3769064440785043
 20
0.1127287068573587
 30
0.0
 10
0.3799662133187989
 20
0.1118656763619783
 30
0.0
 10
0.3829632600301284
 20
0.1107949804305049
 30
0.0
 10
0.3858741422209022
 20
0.109452967945892
 30
0.0
 10
0.3887169407107466
 20
0.10789080781422
 30
0.0
 10
0.3914464795894828
 20
0.1060552220934867
 30
0.0
 10
0.3940927242881473
 20
0.1040086757865276
 30
0.0
 10
0.3965906755862613
 20
0.1016951848887583
 30
0.0
 10
0.3989405608578149
 20
0.0991381093270001
 30
0.0
 10
0.4011718720934932
 20
0.0963648075991808
 30
0.0
 10
0.4032213050540938
 20
0.0933220877238431
 30
0.0
 10
0.4051730149846225
 20
0.0900628708020263
 30
0.0
 10
0.406919945531932
 20
0.0865301595896716
 30
0.0
 10
0.4086024130586485
 20
0.0827828970762447
 30
0.0
 10
0.4100546566310595
 20
0.0787173986980294
 30
0.0
 10
0.4113643513268198
 20
0.0743565813547975
 30
0.0
 10
0.4124225784360693
 20
0.0696489362030911
 30
0.0
 10
0.4133040458509566
 20
0.0646191627662759
 30
0.0
 10
0.4139869157700752
 20
0.059248789410364
 30
0.0
 10
0.4144842638834039
 20
0.0535493281697435
 30
0.0
 10
0.414746983766921
 20
0.0475170293256189
 30
0.0
 10
0.4147964601923806
 20
0.0433927045548645
 30
0.0
 10
0.4148218499140775
 20
0.0412762327777583
 30
0.0
  0
SPLINE
  5
13C
330
1B
100
AcDbEntity
  8
0
  6
Continuous
 62
     7
370
    25
100
AcDbSpline
210
0.0
220
0.0
230
1.0
 70
     8
 71
     3
 72
    31
 73
    27
 74
     0
 42
0.000000001
 43
0.00000001
 40
0.0
 40
0.0
 40
0.0
 40
0.0
 40
0.0685946222587425
 40
0.1332460424433009
 40
0.1943125864682562
 40
0.2512792231169663
 40
0.3045134392563465
 40
0.3542349066533249
 40
0.4004805887739887
 40
0.4434107549384916
 40
0.484014868616345
 40
0.5232523007732026
 40
0.5610423727283596
 40
0.5979002393643997
 40
0.6335184888561949
 40
0.6683143511696508
 40
0.7024956712863817
 40
0.7366853535134587
 40
0.7702931693607882
 40
0.8034372550192493
 40
0.8359129516660287
 40
0.86846024578929
 40
0.9008465382431824
 40
0.9334665246307078
 40
0.9662575752981233
 40
1.0
 40
1.0
 40
1.0
 40
1.0
 10
0.3211917267563953
 20
0.0412762327777583
 30
0.0
 10
0.3212046408570829
 20
0.0434847913499728
 30
0.0
 10
0.3212297266838093
 20
0.0477749482101093
 30
0.0
 10
0.3215087983744484
 20
0.0540263120710069
 30
0.0
 10
0.3219723945285105
 20
0.0598908903779036
 30
0.0
 10
0.3226077241682853
 20
0.0653689638439834
 30
0.0
 10
0.3233808729959856
 20
0.0704619466990114
 30
0.0
 10
0.324412978767691
 20
0.075156228476031
 30
0.0
 10
0.3255867111541067
 20
0.079473535823002
 30
0.0
 10
0.3269470436663313
 20
0.0834279471803256
 30
0.0
 10
0.3284819959898884
 20
0.087072738637891
 30
0.0
 10
0.3301526361757962
 20
0.0904753056179604
 30
0.0
 10
0.3320252658775118
 20
0.0936304998045658
 30
0.0
 10
0.3339928608746423
 20
0.0965886805297605
 30
0.0
 10
0.3361350684190441
 20
0.0993014244192226
 30
0.0
 10
0.3383909263114555
 20
0.1018070410538103
 30
0.0
 10
0.3408484804952007
 20
0.1040476217807318
 30
0.0
 10
0.3434241894823443
 20
0.1060888147880183
 30
0.0
 10
0.3461413731198134
 20
0.1078781640664414
 30
0.0
 10
0.3489225804482861
 20
0.1094542561379279
 30
0.0
 10
0.3517869546945828
 20
0.1108007076047628
 30
0.0
 10
0.3547423162259975
 20
0.1118593861819101
 30
0.0
 10
0.3577621019696857
 20
0.1127338289682334
 30
0.0
 10
0.3608568683748548
 20
0.113331819033059
 30
0.0
 10
0.3640317252227414
 20
0.1137080752727987
 30
0.0
 10
0.3661746950966842
 20
0.1137440464436726
 30
0.0
 10
0.3672615013879318
 20
0.1137622892082045
 30
0.0
  0
SPLINE
  5
13D
330
1B
100
AcDbEntity
  8
0
  6
Continuous
 62
     7
370
    25
100
AcDbSpline
210
0.0
220
0.0
230
1.0
 70
     8
 71
     3
 72
    31
 73
    27
 74
     0
 42
0.000000001
 43
0.00000001
 40
0.0
 40
0.0
 40
0.0
 40
0.0
 40
0.0337871463469909
 40
0.0666216577242938
 40
0.0992848780959724
 40
0.1313611650426513
 40
0.1635851875953433
 40
0.1961039269870678
 40
0.2289022543238166
 40
0.2621580559050073
 40
0.2959912222583165
 40
0.3302178457247997
 40
0.3650598258919538
 40
0.4009507373401078
 40
0.4376203820767375
 40
0.4757075294370918
 40
0.5153806916250483
 40
0.5564135414931646
 40
0.5997648298727314
 40
0.6464241555840872
 40
0.6964314445175667
 40
0.7497815178015576
 40
0.8065733069755324
 40
0.8674355315653995
 40
0.9318867532508741
 40
1.0
 40
1.0
 40
1.0
 40
1.0
 10
0.3672615013879318
 20
-0.0310994107716058
 30
0.0
 10
0.36617472524678
 20
-0.0310810503204716
 30
0.0
 10
0.364031814822941
 20
-0.031044847094589
 30
0.0
 10
0.3608565224828052
 20
-0.0306702907367863
 30
0.0
 10
0.3577745365206025
 20
-0.0300681055709456
 30
0.0
 10
0.3547706485663661
 20
-0.0292249321815328
 30
0.0
 10
0.3518294471851185
 20
-0.0281928520116337
 30
0.0
 10
0.348991010702607
 20
-0.0268482187989178
 30
0.0
 10
0.3462237790612419
 20
-0.0252996334069507
 30
0.0
 10
0.343535135123522
 20
-0.0235360341377269
 30
0.0
 10
0.3409756012243162
 20
-0.0215154954318848
 30
0.0
 10
0.3385307742434563
 20
-0.0192806809166686
 30
0.0
 10
0.3362620727042057
 20
-0.0167758222041719
 30
0.0
 10
0.3341504941365943
 20
-0.0140404709007185
 30
0.0
 10
0.3321436402706204
 20
-0.0110997920687204
 30
0.0
 10
0.3302976019509647
 20
-0.0079136356496093
 30
0.0
 10
0.3285900880112776
 20
-0.0044946352366326
 30
0.0
 10
0.3270293206621228
 20
-0.0008207017454871
 30
0.0
 10
0.3256455150119292
 20
0.0031617757293077
 30
0.0
 10
0.3244231642988025
 20
0.0074983575601144
 30
0.0
 10
0.3234580399889574
 20
0.0122273196118483
 30
0.0
 10
0.3226319393853008
 20
0.0173106805215091
 30
0.0
 10
0.3219656250922497
 20
0.0227702840800069
 30
0.0
 10
0.321510730394676
 20
0.0286090942448452
 30
0.0
 10
0.3212295762594101
 20
0.0348234725490243
 30
0.0
 10
0.3212045734869643
 20
0.0390860620890482
 30
0.0
 10
0.3211917267563953
 20
0.0412762327777583
 30
0.0
  0
SPLINE
  5
13E
330
1B
100
AcDbEntity
  8
0
  6
Continuous
 62
     7
370
    25
100
AcDbSpline
210
0.0
220
0.0
230
1.0
 70
     8
 71
     3
 72
    23
 73
    19
 74
     0
 42
0.000000001
 43
0.00000001
 40
0.0
 40
0.0
 40
0.0
 40
0.0
 40
0.0787802355821394
 40
0.1537206442085843
 40
0.226713530308781
 40
0.2991911660659364
 40
0.3711899968376686
 40
0.4430064143534095
 40
0.5166891732948802
 40
0.593217216623412
 40
0.6338729178078458
 40
0.6769891422899791
 40
0.7228995063258269
 40
0.7719586105061443
 40
0.8242113233348358
 40
0.879378650627202
 40
0.9379481193304179
 40
1.0
 40
1.0
 40
1.0
 40
1.0
 10
-0.1911240414648848
 20
0.0733787779523999
 30
0.0
 10
-0.1911818760360855
 20
0.0715427502118116
 30
0.0
 10
-0.1912947262640241
 20
0.0679601845469273
 30
0.0
 10
-0.1923468957002454
 20
0.0627609372473692
 30
0.0
 10
-0.1940703807289365
 20
0.057910964230029
 30
0.0
 10
-0.1964453133670985
 20
0.053416372186113
 30
0.0
 10
-0.1994697021747159
 20
0.0493647719750842
 30
0.0
 10
-0.2031045364701236
 20
0.0458060926324117
 30
0.0
 10
-0.2073518440090872
 20
0.0428281433178127
 30
0.0
 10
-0.2113057540854329
 20
0.0407630722665725
 30
0.0
 10
-0.2147984391128594
 20
0.0394405168089049
 30
0.0
 10
-0.2176737663879786
 20
0.0385099514994939
 30
0.0
 10
-0.2208102615649793
 20
0.0377909764885852
 30
0.0
 10
-0.2241778731636363
 20
0.037146876812578
 30
0.0
 10
-0.2277906155058449
 20
0.036660589631022
 30
0.0
 10
-0.2316398296550262
 20
0.0363044244944333
 30
0.0
 10
-0.2357282608215651
 20
0.0360818241519811
 30
0.0
 10
-0.2385368855992479
 20
0.0360486743532039
 30
0.0
 10
-0.2399817413437461
 20
0.0360316209263551
 30
0.0
  0
SPLINE
  5
13F
330
1B
100
AcDbEntity
  8
0
  6
Continuous
 62
     7
370
    25
100
AcDbSpline
210
0.0
220
0.0
230
1.0
 70
     8
 71
     3
 72
    23
 73
    19
 74
     0
 42
0.000000001
 43
0.00000001
 40
0.0
 40
0.0
 40
0.0
 40
0.0
 40
0.0679623714944534
 40
0.133283402867522
 40
0.1978352977570544
 40
0.2608919865309867
 40
0.3233765044831753
 40
0.386350075469087
 40
0.4496377310517118
 40
0.5147953269783557
 40
0.5792399132410291
 40
0.6418141777582882
 40
0.7013585647860581
 40
0.7607267659857196
 40
0.8192220679243876
 40
0.8787161693846297
 40
0.938147354053308
 40
1.0
 40
1.0
 40
1.0
 40
1.0
 10
0.4766530633200942
 20
-0.0169665619930877
 30
0.0
 10
0.4776753270412015
 20
-0.0169362824106548
 30
0.0
 10
0.4796801244663226
 20
-0.0168769000539872
 30
0.0
 10
0.4826397095147656
 20
-0.0165194327768188
 30
0.0
 10
0.4854774385948771
 20
-0.015886966322793
 30
0.0
 10
0.4881958050749886
 20
-0.0149888257611648
 30
0.0
 10
0.490815546455535
 20
-0.0138922269584817
 30
0.0
 10
0.4932999843102685
 20
-0.0125051435041804
 30
0.0
 10
0.4956632950797689
 20
-0.0108533278446774
 30
0.0
 10
0.4978979643532834
 20
-0.008998192875178
 30
0.0
 10
0.4999701666500997
 20
-0.006975639648707
 30
0.0
 10
0.5017527366844332
 20
-0.0048012411279649
 30
0.0
 10
0.5032756986230605
 20
-0.0025298279261062
 30
0.0
 10
0.5045132650430554
 20
-0.0001598322614892
 30
0.0
 10
0.5054999300555563
 20
0.0023255806375436
 30
0.0
 10
0.5061740035670103
 20
0.0049128532327768
 30
0.0
 10
0.5066121645482755
 20
0.0076038778770622
 30
0.0
 10
0.5066606435341273
 20
0.0094295599461627
 30
0.0
 10
0.5066853669744451
 20
0.01036062607475
 30
0.0
  0
SPLINE
  5
140
330
1B
100
AcDbEntity
  8
0
  6
Continuous
 62
     7
370
    25
100
AcDbSpline
210
0.0
220
0.0
230
1.0
 70
     8
 71
     3
 72
    23
 73
    19
 74
     0
 42
0.000000001
 43
0.00000001
 40
0.0
 40
0.0
 40
0.0
 40
0.0
 40
0.061841702983909
 40
0.1212623730944464
 40
0.1807459488653162
 40
0.2392309018221049
 40
0.2983075587884648
 40
0.3581827976158469
 40
0.4203592307800675
 40
0.4847924155141846
 40
0.5499384837666872
 40
0.6137182775404272
 40
0.676680707249631
 40
0.7391541704483164
 40
0.8021997032403516
 40
0.8667401776162983
 40
0.9320496524002458
 40
1.0
 40
1.0
 40
1.0
 40
1.0
 10
0.4466207596657432
 20
0.01036062607475
 30
0.0
 10
0.4466454195665454
 20
0.009429524504553
 30
0.0
 10
0.4466937739608665
 20
0.0076037729397322
 30
0.0
 10
0.4471328416722288
 20
0.0049132540590475
 30
0.0
 10
0.4478035142046568
 20
0.0023240844368998
 30
0.0
 10
0.4488011675850047
 20
-0.0001503879561721
 30
0.0
 10
0.4499912025521258
 20
-0.002547880792092
 30
0.0
 10
0.4515622783075999
 20
-0.0047815534484626
 30
0.0
 10
0.453303096647439
 20
-0.0069870680190638
 30
0.0
 10
0.4553839601690063
 20
-0.0089949999649989
 30
0.0
 10
0.4576171634358824
 20
-0.0108633709955426
 30
0.0
 10
0.4600030375502874
 20
-0.0124964518426976
 30
0.0
 10
0.4624896501430837
 20
-0.0138935452835715
 30
0.0
 10
0.4651105722720255
 20
-0.0149884703866209
 30
0.0
 10
0.4678286188849266
 20
-0.0158870643569811
 30
0.0
 10
0.4706664359733526
 20
-0.0165194060600572
 30
0.0
 10
0.4736259972147291
 20
-0.0168769070835161
 30
0.0
 10
0.4756307979242452
 20
-0.0169362847845852
 30
0.0
 10
0.4766530633200942
 20
-0.0169665619930877
 30
0.0
  0
SPLINE
  5
141
330
1B
100
AcDbEntity
  8
0
  6
Continuous
 62
     7
370
    25
100
AcDbSpline
210
0.0
220
0.0
230
1.0
 70
     8
 71
     3
 72
    23
 73
    19
 74
     0
 42
0.000000001
 43
0.00000001
 40
0.0
 40
0.0
 40
0.0
 40
0.0
 40
0.0611379149156209
 40
0.1199938438512141
 40
0.1782253215076175
 40
0.2362564202618975
 40
0.2949293769549095
 40
0.3547157488097545
 40
0.4167296639241632
 40
0.4806644084708271
 40
0.5458317702108675
 40
0.6097581054261655
 40
0.672971228474222
 40
0.7360168691676641
 40
0.7998393981920316
 40
0.8647753566655666
 40
0.9310876232725691
 40
1.0
 40
1.0
 40
1.0
 40
1.0
 10
0.5066853669744451
 20
0.01036062607475
 30
0.0
 10
0.5066637018959019
 20
0.0113013564258232
 30
0.0
 10
0.5066211803925875
 20
0.0131477041628792
 30
0.0
 10
0.5061402375350437
 20
0.0158519411013057
 30
0.0
 10
0.5054732149421228
 20
0.0184631696927087
 30
0.0
 10
0.504466009008669
 20
0.020964978709767
 30
0.0
 10
0.5031574836251882
 20
0.0233474955302643
 30
0.0
 10
0.5015636487027184
 20
0.0256227554088663
 30
0.0
 10
0.4997198467219921
 20
0.027808202153093
 30
0.0
 10
0.4975900223285584
 20
0.0298382339788841
 30
0.0
 10
0.4952715091808804
 20
0.0316944181496388
 30
0.0
 10
0.4928063286543881
 20
0.0333329833621601
 30
0.0
 10
0.4902272745717716
 20
0.0347158564594171
 30
0.0
 10
0.4875369618771561
 20
0.035869679383302
 30
0.0
 10
0.4847045649224396
 20
0.0367023358451753
 30
0.0
 10
0.4817758114111853
 20
0.0373579753360541
 30
0.0
 10
0.4787132428031496
 20
0.0377068736717167
 30
0.0
 10
0.4766354235781251
 20
0.0377673880479505
 30
0.0
 10
0.4755765377295429
 20
0.0377982270236698
 30
0.0
  0
SPLINE
  5
142
330
1B
100
AcDbEntity
  8
0
  6
Continuous
 62
     7
370
    25
100
AcDbSpline
210
0.0
220
0.0
230
1.0
 70
     8
 71
     3
 72
    23
 73
    19
 74
     0
 42
0.000000001
 43
0.00000001
 40
0.0
 40
0.0
 40
0.0
 40
0.0
 40
0.0705992894335923
 40
0.1379009210036186
 40
0.2031961978097332
 40
0.266789724650263
 40
0.3291063872214224
 40
0.3906535452348595
 40
0.4526530569344805
 40
0.5157480403003728
 40
0.5779263408004537
 40
0.638930011618448
 40
0.6983507176418227
 40
0.7572960374442723
 40
0.8163937673501531
 40
0.8762669096141289
 40
0.9368171089060844
 40
1.0
 40
1.0
 40
1.0
 40
1.0
 10
0.4755765377295429
 20
0.0377982270236698
 30
0.0
 10
0.4745268430511249
 20
0.0377675953826229
 30
0.0
 10
0.4724764844131306
 20
0.0377077628893201
 30
0.0
 10
0.469468318479225
 20
0.037360312026132
 30
0.0
 10
0.4666213400757708
 20
0.0367060181056285
 30
0.0
 10
0.4638978308769264
 20
0.0358726979496219
 30
0.0
 10
0.461348708715267
 20
0.0347269081970374
 30
0.0
 10
0.4589554473039174
 20
0.0333351050885673
 30
0.0
 10
0.4567087917177799
 20
0.0316964760276728
 30
0.0
 10
0.4546322739331678
 20
0.0298342354330449
 30
0.0
 10
0.4527496100217347
 20
0.0277953364965427
 30
0.0
 10
0.4511283056607571
 20
0.0256114970407951
 30
0.0
 10
0.4497297859720611
 20
0.0233353473122187
 30
0.0
 10
0.4485927064884904
 20
0.0209478692729719
 30
0.0
 10
0.4477072704347205
 20
0.018449975588346
 30
0.0
 10
0.447066788117006
 20
0.0158531547465423
 30
0.0
 10
0.4467103412185389
 20
0.0131399930880297
 30
0.0
 10
0.4466510407655695
 20
0.0113001307758451
 30
0.0
 10
0.4466207596657432
 20
0.01036062607475
 30
0.0
  0
SPLINE
  5
154
330
1B
100
AcDbEntity
  8
0
  6
Continuous
 62
     7
370
    25
100
AcDbSpline
210
0.0
220
0.0
230
1.0
 70
     8
 71
     3
 72
    52
 73
    48
 74
     0
 42
0.000000001
 43
0.00000001
 40
0.0
 40
0.0
 40
0.0
 40
0.0
 40
0.0625000000000003
 40
0.0625000000000003
 40
0.0937500000000011
 40
0.0937500000000011
 40
0.1250000000000019
 40
0.1250000000000019
 40
0.1562500000000028
 40
0.1562500000000028
 40
0.1875000000000036
 40
0.1875000000000036
 40
0.2500000000000035
 40
0.2500000000000035
 40
0.2812500000000043
 40
0.2812500000000043
 40
0.3125000000000051
 40
0.3125000000000051
 40
0.3750000000000051
 40
0.3750000000000051
 40
0.4375000000000051
 40
0.4375000000000051
 40
0.4687500000000051
 40
0.4687500000000051
 40
0.5000000000000051
 40
0.5000000000000051
 40
0.5625000000000052
 40
0.5625000000000052
 40
0.6250000000000053
 40
0.6250000000000053
 40
0.6875000000000053
 40
0.6875000000000053
 40
0.7187500000000054
 40
0.7187500000000054
 40
0.7500000000000054
 40
0.7500000000000054
 40
0.8125000000000051
 40
0.8125000000000051
 40
0.8437500000000042
 40
0.8437500000000042
 40
0.8750000000000033
 40
0.8750000000000033
 40
0.9062500000000026
 40
0.9062500000000026
 40
0.9375000000000017
 40
0.9375000000000017
 40
1.0
 40
1.0
 40
1.0
 40
1.0
 10
1.575000000000001
 20
-0.1043419857967068
 30
0.0
 10
1.584899307130871
 20
-0.111457511049041
 30
0.0
 10
1.595551849535248
 20
-0.1170190254985915
 30
0.0
 10
1.612616429842696
 20
-0.1230900870773599
 30
0.0
 10
1.618480733125927
 20
-0.1247175146537854
 30
0.0
 10
1.630185331457204
 20
-0.1271035072538728
 30
0.0
 10
1.636073378644357
 20
-0.127880801125413
 30
0.0
 10
1.647916261702328
 20
-0.1286200144361976
 30
0.0
 10
1.653915927235325
 20
-0.1285754434899127
 30
0.0
 10
1.66566794701401
 20
-0.1276773064843798
 30
0.0
 10
1.671439067481374
 20
-0.126831716830689
 30
0.0
 10
1.688454480863105
 20
-0.1231591447530885
 30
0.0
 10
1.699472845887099
 20
-0.1191403401189173
 30
0.0
 10
1.714611487317011
 20
-0.1112206769788717
 30
0.0
 10
1.719462764936993
 20
-0.1082577257103209
 30
0.0
 10
1.728785090683748
 20
-0.1016745807693184
 30
0.0
 10
1.733253743570697
 20
-0.0980477234735729
 30
0.0
 10
1.745748624074263
 20
-0.0864500929752491
 30
0.0
 10
1.753018406191004
 20
-0.0776903859470291
 30
0.0
 10
1.76533447458803
 20
-0.0578493479153917
 30
0.0
 10
1.770087683512769
 20
-0.0472398197086219
 30
0.0
 10
1.775047928776518
 20
-0.0301722734160725
 30
0.0
 10
1.77634021482693
 20
-0.0242216909028404
 30
0.0
 10
1.778052164053827
 20
-0.0122956689057255
 30
0.0
 10
1.778485142653318
 20
-0.0063127713304511
 30
0.0
 10
1.778528592595041
 20
0.0116954154947709
 30
0.0
 10
1.776813619783858
 20
0.0239127874913376
 30
0.0
 10
1.770276124377199
 20
0.0467671837199061
 30
0.0
 10
1.76539750821697
 20
0.0577021975116105
 30
0.0
 10
1.753233471777796
 20
0.0773884927173133
 30
0.0
 10
1.745813671548434
 20
0.0863787523035642
 30
0.0
 10
1.733320631562361
 20
0.0979910556241075
 30
0.0
 10
1.728917235596841
 20
0.1015716559042452
 30
0.0
 10
1.719615228695984
 20
0.1081593791170401
 30
0.0
 10
1.71468396648971
 20
0.1111798816096626
 30
0.0
 10
1.699479394112372
 20
0.1191426285616793
 30
0.0
 10
1.688730794407295
 20
0.1230816729122036
 30
0.0
 10
1.67157928218622
 20
0.1268101543288223
 30
0.0
 10
1.665724045975701
 20
0.1276689457472597
 30
0.0
 10
1.65403606383616
 20
0.1285702746313206
 30
0.0
 10
1.648160681446124
 20
0.1286230372157298
 30
0.0
 10
1.636346869146678
 20
0.1279095806155415
 30
0.0
 10
1.630363401760787
 20
0.1271336737046574
 30
0.0
 10
1.618551199745048
 20
0.1247378849531078
 30
0.0
 10
1.612773012042894
 20
0.1231354320986188
 30
0.0
 10
1.595820389423772
 20
0.1171347637539628
 30
0.0
 10
1.584915960898565
 20
0.1114694816145577
 30
0.0
 10
1.575000000000001
 20
0.1043419857967067
 30
0.0
  0
SPLINE
  5
157
330
1B
100
AcDbEntity
  8
0
  6
Continuous
 62
     7
370
    25
100
AcDbSpline
210
0.0
220
0.0
230
1.0
 70
     8
 71
     3
 72
    54
 73
    50
 74
     0
 42
0.000000001
 43
0.00000001
 40
0.0
 40
0.0
 40
0.0
 40
0.0
 40
0.0625000000000008
 40
0.0625000000000008
 40
0.0937500000000013
 40
0.0937500000000013
 40
0.1250000000000017
 40
0.1250000000000017
 40
0.1562500000000022
 40
0.1562500000000022
 40
0.1875000000000027
 40
0.1875000000000027
 40
0.2500000000000032
 40
0.2500000000000032
 40
0.3125000000000037
 40
0.3125000000000037
 40
0.3750000000000042
 40
0.3750000000000042
 40
0.4375000000000049
 40
0.4375000000000049
 40
0.4687500000000052
 40
0.4687500000000052
 40
0.5000000000000054
 40
0.5000000000000054
 40
0.5312500000000057
 40
0.5312500000000057
 40
0.5625000000000059
 40
0.5625000000000059
 40
0.6250000000000061
 40
0.6250000000000061
 40
0.6562500000000058
 40
0.6562500000000058
 40
0.6875000000000054
 40
0.6875000000000054
 40
0.7500000000000047
 40
0.7500000000000047
 40
0.7812500000000042
 40
0.7812500000000042
 40
0.8125000000000038
 40
0.8125000000000038
 40
0.8437500000000033
 40
0.8437500000000033
 40
0.8750000000000029
 40
0.8750000000000029
 40
0.9375000000000009
 40
0.9375000000000009
 40
0.9687500000000004
 40
0.9687500000000004
 40
1.0
 40
1.0
 40
1.0
 40
1.0
 10
1.575000000000001
 20
0.5156534114391557
 30
0.0
 10
1.590048943932343
 20
0.5090855138487654
 30
0.0
 10
1.605584769988453
 20
0.5046200994868303
 30
0.0
 10
1.629561690716072
 20
0.5009419509086089
 30
0.0
 10
1.637682937515694
 20
0.5002350540922921
 30
0.0
 10
1.65363108619044
 20
0.4998655543160142
 30
0.0
 10
1.661523612107213
 20
0.5001896808667375
 30
0.0
 10
1.677149627085028
 20
0.5018098089856493
 30
0.0
 10
1.68493278265131
 20
0.5031188507616876
 30
0.0
 10
1.700078802526986
 20
0.5066441982250289
 30
0.0
 10
1.707418631919076
 20
0.508846814337529
 30
0.0
 10
1.728797333651065
 20
0.5166852747427392
 30
0.0
 10
1.742321086102864
 20
0.5236349600869852
 30
0.0
 10
1.766867670029413
 20
0.5401335114525612
 30
0.0
 10
1.778025223995883
 20
0.5497126439148632
 30
0.0
 10
1.798078861596661
 20
0.5715324863405031
 30
0.0
 10
1.806705732766353
 20
0.5834588534137154
 30
0.0
 10
1.821253291732221
 20
0.60969539258047
 30
0.0
 10
1.827212259462836
 20
0.624243743573062
 30
0.0
 10
1.833274352505612
 20
0.6471380880790196
 30
0.0
 10
1.834838059741227
 20
0.6549791643462153
 30
0.0
 10
1.836963175627303
 20
0.6711450606887068
 30
0.0
 10
1.837494697589058
 20
0.6792844852542067
 30
0.0
 10
1.837505223133909
 20
0.69547167510964
 30
0.0
 10
1.836988652657645
 20
0.7035523030837032
 30
0.0
 10
1.834895611291652
 20
0.7196876619545265
 30
0.0
 10
1.833329084411143
 20
0.7276169095006202
 30
0.0
 10
1.827278148814875
 20
0.7505823781131269
 30
0.0
 10
1.821337194798486
 20
0.7651291534177699
 30
0.0
 10
1.810406153719413
 20
0.7848793268326884
 30
0.0
 10
1.806412747258946
 20
0.791164608028544
 30
0.0
 10
1.797732393080332
 20
0.8031997774309051
 30
0.0
 10
1.793018783808777
 20
0.8089770587583969
 30
0.0
 10
1.777985526521995
 20
0.8253228874600222
 30
0.0
 10
1.766870966138232
 20
0.8348680979673652
 30
0.0
 10
1.74840604724001
 20
0.8472732209187371
 30
0.0
 10
1.741905791788757
 20
0.8511026574416694
 30
0.0
 10
1.728544363743231
 20
0.8579209113062876
 30
0.0
 10
1.721667446653703
 20
0.8609270425046689
 30
0.0
 10
1.707502777952304
 20
0.86612416552512
 30
0.0
 10
1.700215152691408
 20
0.8683153250693715
 30
0.0
 10
1.685194208422216
 20
0.8718288122711625
 30
0.0
 10
1.677390543566215
 20
0.8731570130119175
 30
0.0
 10
1.653798961106727
 20
0.8756273274246724
 30
0.0
 10
1.637946432494526
 20
0.8753077183966105
 30
0.0
 10
1.613995538952918
 20
0.8716877389498188
 30
0.0
 10
1.605942694977292
 20
0.869933432349474
 30
0.0
 10
1.590240820597554
 20
0.8654096507832565
 30
0.0
 10
1.582541966377648
 20
0.8626381725431663
 30
0.0
 10
1.575000000000001
 20
0.8593465885608442
 30
0.0
  0
SPLINE
  5
158
330
1B
100
AcDbEntity
  8
0
  6
Continuous
 62
     7
370
    25
100
AcDbSpline
210
0.0
220
0.0
230
1.0
 70
     8
 71
     3
 72
    54
 73
    50
 74
     0
 42
0.000000001
 43
0.00000001
 40
0.0
 40
0.0
 40
0.0
 40
0.0
 40
0.0625000000000013
 40
0.0625000000000013
 40
0.0937500000000019
 40
0.0937500000000019
 40
0.1250000000000026
 40
0.1250000000000026
 40
0.1562500000000032
 40
0.1562500000000032
 40
0.1875000000000038
 40
0.1875000000000038
 40
0.2500000000000049
 40
0.2500000000000049
 40
0.3125000000000059
 40
0.3125000000000059
 40
0.375000000000007
 40
0.375000000000007
 40
0.437500000000008
 40
0.437500000000008
 40
0.4687500000000084
 40
0.4687500000000084
 40
0.5000000000000089
 40
0.5000000000000089
 40
0.5312500000000093
 40
0.5312500000000093
 40
0.5625000000000097
 40
0.5625000000000097
 40
0.6250000000000103
 40
0.6250000000000103
 40
0.6562500000000103
 40
0.6562500000000103
 40
0.6875000000000102
 40
0.6875000000000102
 40
0.7500000000000095
 40
0.7500000000000095
 40
0.7812500000000088
 40
0.7812500000000088
 40
0.8125000000000079
 40
0.8125000000000079
 40
0.8437500000000071
 40
0.8437500000000071
 40
0.8750000000000063
 40
0.8750000000000063
 40
0.9375000000000037
 40
0.9375000000000037
 40
0.9687500000000019
 40
0.9687500000000019
 40
1.0
 40
1.0
 40
1.0
 40
1.0
 10
1.575000000000001
 20
-0.8593465885608442
 30
0.0
 10
1.590048943932342
 20
-0.8659144861512348
 30
0.0
 10
1.605584769988453
 20
-0.8703799005131694
 30
0.0
 10
1.629561690716072
 20
-0.874058049091391
 30
0.0
 10
1.637682937515695
 20
-0.874764945907708
 30
0.0
 10
1.653631086190441
 20
-0.8751344456839859
 30
0.0
 10
1.661523612107213
 20
-0.8748103191332626
 30
0.0
 10
1.677149627085028
 20
-0.8731901910143506
 30
0.0
 10
1.684932782651311
 20
-0.8718811492383123
 30
0.0
 10
1.700078802526986
 20
-0.8683558017749712
 30
0.0
 10
1.707418631919076
 20
-0.866153185662471
 30
0.0
 10
1.728797333651065
 20
-0.8583147252572603
 30
0.0
 10
1.742321086102864
 20
-0.851365039913015
 30
0.0
 10
1.766867670029413
 20
-0.8348664885474386
 30
0.0
 10
1.778025223995883
 20
-0.825287356085137
 30
0.0
 10
1.79807886159666
 20
-0.803467513659497
 30
0.0
 10
1.806705732766353
 20
-0.7915411465862843
 30
0.0
 10
1.821253291732221
 20
-0.76530460741953
 30
0.0
 10
1.827212259462836
 20
-0.750756256426938
 30
0.0
 10
1.833274352505612
 20
-0.7278619119209807
 30
0.0
 10
1.834838059741227
 20
-0.7200208356537846
 30
0.0
 10
1.836963175627303
 20
-0.7038549393112926
 30
0.0
 10
1.837494697589058
 20
-0.6957155147457932
 30
0.0
 10
1.837505223133909
 20
-0.6795283248903601
 30
0.0
 10
1.836988652657645
 20
-0.6714476969162968
 30
0.0
 10
1.834895611291651
 20
-0.6553123380454736
 30
0.0
 10
1.833329084411143
 20
-0.6473830904993797
 30
0.0
 10
1.827278148814875
 20
-0.6244176218868731
 30
0.0
 10
1.821337194798485
 20
-0.6098708465822299
 30
0.0
 10
1.810406153719413
 20
-0.5901206731673115
 30
0.0
 10
1.806412747258946
 20
-0.5838353919714564
 30
0.0
 10
1.797732393080331
 20
-0.5718002225690951
 30
0.0
 10
1.793018783808777
 20
-0.5660229412416035
 30
0.0
 10
1.777985526521995
 20
-0.5496771125399778
 30
0.0
 10
1.766870966138233
 20
-0.5401319020326351
 30
0.0
 10
1.748406047240011
 20
-0.5277267790812631
 30
0.0
 10
1.741905791788757
 20
-0.5238973425583309
 30
0.0
 10
1.728544363743231
 20
-0.5170790886937123
 30
0.0
 10
1.721667446653702
 20
-0.5140729574953313
 30
0.0
 10
1.707502777952304
 20
-0.50887583447488
 30
0.0
 10
1.700215152691408
 20
-0.5066846749306289
 30
0.0
 10
1.685194208422218
 20
-0.5031711877288381
 30
0.0
 10
1.677390543566215
 20
-0.5018429869880825
 30
0.0
 10
1.653798961106726
 20
-0.4993726725753276
 30
0.0
 10
1.637946432494526
 20
-0.4996922816033895
 30
0.0
 10
1.613995538952917
 20
-0.5033122610501815
 30
0.0
 10
1.605942694977291
 20
-0.5050665676505265
 30
0.0
 10
1.590240820597554
 20
-0.5095903492167435
 30
0.0
 10
1.582541966377647
 20
-0.5123618274568339
 30
0.0
 10
1.575000000000001
 20
-0.5156534114391557
 30
0.0
  0
CIRCLE
  5
15D
330
1B
100
AcDbEntity
  8
0
  6
Continuous
 62
     7
370
    25
100
AcDbCircle
 10
1.65
 20
-0.6875
 30
0.0
 40
0.0979999999999988
  0
CIRCLE
  5
15E
330
1B
100
AcDbEntity
  8
0
  6
Continuous
 62
     7
370
    25
100
AcDbCircle
 10
1.65
 20
0.6875
 30
0.0
 40
0.0979999999999994
  0
CIRCLE
  5
15F
330
1B
100
AcDbEntity
  8
0
  6
Continuous
 62
     7
370
    25
100
AcDbCircle
 10
1.65
 20
-0.6875
 30
0.0
 40
0.0794999999999999
  0
CIRCLE
  5
160
330
1B
100
AcDbEntity
  8
0
  6
Continuous
 62
     7
370
    25
100
AcDbCircle
 10
1.65
 20
0.6875
 30
0.0
 40
0.0794999999999999
  0
CIRCLE
  5
161
330
1B
100
AcDbEntity
  8
0
  6
Continuous
 62
     7
370
    25
100
AcDbCircle
 10
1.25
 20
-0.5
 30
0.0
 40
0.0979999999999996
  0
CIRCLE
  5
162
330
1B
100
AcDbEntity
  8
0
  6
Continuous
 62
     7
370
    25
100
AcDbCircle
 10
-1.25
 20
-0.5
 30
0.0
 40
0.0979999999999992
  0
CIRCLE
  5
163
330
1B
100
AcDbEntity
  8
0
  6
Continuous
 62
     7
370
    25
100
AcDbCircle
 10
-1.25
 20
0.5
 30
0.0
 40
0.0979999999999994
  0
CIRCLE
  5
164
330
1B
100
AcDbEntity
  8
0
  6
Continuous
 62
     7
370
    25
100
AcDbCircle
 10
1.25
 20
0.5
 30
0.0
 40
0.0979999999999994
  0
LINE
  5
165
330
1B
100
AcDbEntity
  8
0
  6
Continuous
 62
     7
370
    25
100
AcDbLine
 10
-0.2653214976
 20
0.0501644697
 30
0.0
 11
-0.2400921542
 21
0.0499712472
 31
0.0
  0
LINE
  5
166
330
1B
100
AcDbEntity
  8
0
  6
Continuous
 62
     7
370
    25
100
AcDbLine
 10
-0.2394848834
 20
0.0960962282
 30
0.0
 11
-0.2653214976
 21
0.0960962282
 31
0.0
  0
LINE
  5
167
330
1B
100
AcDbEntity
  8
0
  6
Continuous
 62
     7
370
    25
100
AcDbLine
 10
-0.2653214976
 20
0.0960962282
 30
0.0
 11
-0.2653214976
 21
0.0501644697
 31
0.0
  0
LINE
  5
168
330
1B
100
AcDbEntity
  8
0
  6
Continuous
 62
     7
370
    25
100
AcDbLine
 10
-0.1487254951
 20
0.0501644697
 30
0.0
 11
-0.1246002806
 21
0.0498608343
 31
0.0
  0
LINE
  5
169
330
1B
100
AcDbEntity
  8
0
  6
Continuous
 62
     7
370
    25
100
AcDbLine
 10
-0.1487254951
 20
0.0960962282
 30
0.0
 11
-0.1487254951
 21
0.0501644697
 31
0.0
  0
LINE
  5
16A
330
1B
100
AcDbEntity
  8
0
  6
Continuous
 62
     7
370
    25
100
AcDbLine
 10
-0.123523755
 20
0.0960962282
 30
0.0
 11
-0.1487254951
 21
0.0960962282
 31
0.0
  0
LINE
  5
16B
330
1B
100
AcDbEntity
  8
0
  6
Continuous
 62
     7
370
    25
100
AcDbLine
 10
0.5003090231
 20
0.1062818165
 30
0.0
 11
0.4639003756
 21
0.0506061212
 31
0.0
  0
LINE
  5
16C
330
1B
100
AcDbEntity
  8
0
  6
Continuous
 62
     7
370
    25
100
AcDbLine
 10
0.4907859121
 20
0.1137622892
 30
0.0
 11
0.5003090231
 21
0.1062818165
 31
0.0
  0
LINE
  5
16D
330
1B
100
AcDbEntity
  8
0
  6
Continuous
 62
     7
370
    25
100
AcDbLine
 10
0.4496571139
 20
0.0508821534
 30
0.0
 11
0.4907859121
 21
0.1137622892
 31
0.0
  0
LINE
  5
16E
330
1B
100
AcDbEntity
  8
0
  6
Continuous
 62
     7
370
    25
100
AcDbLine
 10
0.3105920902
 20
0.01836556
 30
0.0
 11
0.2575939073
 21
0.01836556
 31
0.0
  0
LINE
  5
16F
330
1B
100
AcDbEntity
  8
0
  6
Continuous
 62
     7
370
    25
100
AcDbLine
 10
0.3105920902
 20
0.0324984087
 30
0.0
 11
0.3105920902
 21
0.01836556
 31
0.0
  0
LINE
  5
170
330
1B
100
AcDbEntity
  8
0
  6
Continuous
 62
     7
370
    25
100
AcDbLine
 10
0.2575939073
 20
0.0324984087
 30
0.0
 11
0.3105920902
 21
0.0324984087
 31
0.0
  0
LINE
  5
171
330
1B
100
AcDbEntity
  8
0
  6
Continuous
 62
     7
370
    25
100
AcDbLine
 10
0.2575939073
 20
0.01836556
 30
0.0
 11
0.2575939073
 21
0.0324984087
 31
0.0
  0
LINE
  5
172
330
1B
100
AcDbEntity
  8
0
  6
Continuous
 62
     7
370
    25
100
AcDbLine
 10
0.1109656012
 20
0.0042327112
 30
0.0
 11
0.0456011756
 21
0.0042327112
 31
0.0
  0
LINE
  5
173
330
1B
100
AcDbEntity
  8
0
  6
Continuous
 62
     7
370
    25
100
AcDbLine
 10
0.1109656012
 20
-0.0275661986
 30
0.0
 11
0.1109656012
 21
0.0042327112
 31
0.0
  0
LINE
  5
174
330
1B
100
AcDbEntity
  8
0
  6
Continuous
 62
     7
370
    25
100
AcDbLine
 10
0.1233318439
 20
-0.0275661986
 30
0.0
 11
0.1109656012
 21
-0.0275661986
 31
0.0
  0
LINE
  5
175
330
1B
100
AcDbEntity
  8
0
  6
Continuous
 62
     7
370
    25
100
AcDbLine
 10
0.1233318439
 20
0.0042327112
 30
0.0
 11
0.1233318439
 21
-0.0275661986
 31
0.0
  0
LINE
  5
176
330
1B
100
AcDbEntity
  8
0
  6
Continuous
 62
     7
370
    25
100
AcDbLine
 10
0.1392312987
 20
0.0042327112
 30
0.0
 11
0.1233318439
 21
0.0042327112
 31
0.0
  0
LINE
  5
177
330
1B
100
AcDbEntity
  8
0
  6
Continuous
 62
     7
370
    25
100
AcDbLine
 10
0.1392312987
 20
0.01836556
 30
0.0
 11
0.1392312987
 21
0.0042327112
 31
0.0
  0
LINE
  5
178
330
1B
100
AcDbEntity
  8
0
  6
Continuous
 62
     7
370
    25
100
AcDbLine
 10
0.1233318439
 20
0.01836556
 30
0.0
 11
0.1392312987
 21
0.01836556
 31
0.0
  0
LINE
  5
179
330
1B
100
AcDbEntity
  8
0
  6
Continuous
 62
     7
370
    25
100
AcDbLine
 10
0.1233318439
 20
0.1137622892
 30
0.0
 11
0.1233318439
 21
0.01836556
 31
0.0
  0
LINE
  5
17A
330
1B
100
AcDbEntity
  8
0
  6
Continuous
 62
     7
370
    25
100
AcDbLine
 10
0.1208199508
 20
0.1137622892
 30
0.0
 11
0.1233318439
 21
0.1137622892
 31
0.0
  0
LINE
  5
17B
330
1B
100
AcDbEntity
  8
0
  6
Continuous
 62
     7
370
    25
100
AcDbLine
 10
0.0456011756
 20
0.0042327112
 30
0.0
 11
0.1208199508
 21
0.1137622892
 31
0.0
  0
LINE
  5
17C
330
1B
100
AcDbEntity
  8
0
  6
Continuous
 62
     7
370
    25
100
AcDbLine
 10
-0.1487254951
 20
-0.0275661986
 30
0.0
 11
-0.1610917378
 21
-0.0275661986
 31
0.0
  0
LINE
  5
17D
330
1B
100
AcDbEntity
  8
0
  6
Continuous
 62
     7
370
    25
100
AcDbLine
 10
-0.1487254951
 20
0.0360316209
 30
0.0
 11
-0.1487254951
 21
-0.0275661986
 31
0.0
  0
LINE
  5
17E
330
1B
100
AcDbEntity
  8
0
  6
Continuous
 62
     7
370
    25
100
AcDbLine
 10
-0.1388711455
 20
0.0360316209
 30
0.0
 11
-0.1487254951
 21
0.0360316209
 31
0.0
  0
LINE
  5
17F
330
1B
100
AcDbEntity
  8
0
  6
Continuous
 62
     7
370
    25
100
AcDbLine
 10
-0.1610917378
 20
0.110229077
 30
0.0
 11
-0.1340681852
 21
0.110229077
 31
0.0
  0
LINE
  5
180
330
1B
100
AcDbEntity
  8
0
  6
Continuous
 62
     7
370
    25
100
AcDbLine
 10
-0.1610917378
 20
-0.0275661986
 30
0.0
 11
-0.1610917378
 21
0.110229077
 31
0.0
  0
LINE
  5
181
330
1B
100
AcDbEntity
  8
0
  6
Continuous
 62
     7
370
    25
100
AcDbLine
 10
-0.3167739001
 20
0.0059993173
 30
0.0
 11
-0.3059534378
 21
-0.0021988391
 31
0.0
  0
LINE
  5
182
330
1B
100
AcDbEntity
  8
0
  6
Continuous
 62
     7
370
    25
100
AcDbLine
 10
-0.3059534378
 20
0.0849445272
 30
0.0
 11
-0.3167739001
 21
0.0766635612
 31
0.0
  0
LINE
  5
183
330
1B
100
AcDbEntity
  8
0
  6
Continuous
 62
     7
370
    25
100
AcDbLine
 10
1.95
 20
0.94
 30
0.0
 11
-1.95
 21
0.94
 31
0.0
  0
LINE
  5
184
330
1B
100
AcDbEntity
  8
0
  6
Continuous
 62
     7
370
    25
100
AcDbLine
 10
1.575
 20
0.8593465886
 30
0.0
 11
1.575
 21
0.95
 31
0.0
  0
LINE
  5
185
330
1B
100
AcDbEntity
  8
0
  6
Continuous
 62
     7
370
    25
100
AcDbLine
 10
1.575
 20
0.1043419858
 30
0.0
 11
1.575
 21
0.5156534114
 31
0.0
  0
LINE
  5
186
330
1B
100
AcDbEntity
  8
0
  6
Continuous
 62
     7
370
    25
100
AcDbLine
 10
1.575
 20
-0.5156534114
 30
0.0
 11
1.575
 21
-0.1043419858
 31
0.0
  0
LINE
  5
187
330
1B
100
AcDbEntity
  8
0
  6
Continuous
 62
     7
370
    25
100
AcDbLine
 10
1.575
 20
-0.95
 30
0.0
 11
1.575
 21
-0.8593465886
 31
0.0
  0
LINE
  5
188
330
1B
100
AcDbEntity
  8
0
  6
Continuous
 62
     7
370
    25
100
AcDbLine
 10
-1.95
 20
-0.94
 30
0.0
 11
1.95
 21
-0.94
 31
0.0
  0
LINE
  5
189
330
1B
100
AcDbEntity
  8
0
  6
Continuous
 62
     7
370
    25
100
AcDbLine
 10
-1.575
 20
0.95
 30
0.0
 11
-1.575
 21
-0.95
 31
0.0
  0
LINE
  5
18A
330
1B
100
AcDbEntity
  8
0
  6
Continuous
 62
     7
370
    25
100
AcDbLine
 10
-0.2653214976
 20
-0.0275661986
 30
0.0
 11
-0.2776877402
 21
-0.0275661986
 31
0.0
  0
LINE
  5
18B
330
1B
100
AcDbEntity
  8
0
  6
Continuous
 62
     7
370
    25
100
AcDbLine
 10
-0.2653214976
 20
0.0360316209
 30
0.0
 11
-0.2653214976
 21
-0.0275661986
 31
0.0
  0
LINE
  5
18C
330
1B
100
AcDbEntity
  8
0
  6
Continuous
 62
     7
370
    25
100
AcDbLine
 10
-0.2552739254
 20
0.0360316209
 30
0.0
 11
-0.2653214976
 21
0.0360316209
 31
0.0
  0
LINE
  5
18D
330
1B
100
AcDbEntity
  8
0
  6
Continuous
 62
     7
370
    25
100
AcDbLine
 10
-0.2046496194
 20
-0.0275661986
 30
0.0
 11
-0.2552739254
 21
0.0360316209
 31
0.0
  0
LINE
  5
18E
330
1B
100
AcDbEntity
  8
0
  6
Continuous
 62
     7
370
    25
100
AcDbLine
 10
-0.1893574354
 20
-0.0275661986
 30
0.0
 11
-0.2046496194
 21
-0.0275661986
 31
0.0
  0
LINE
  5
18F
330
1B
100
AcDbEntity
  8
0
  6
Continuous
 62
     7
370
    25
100
AcDbLine
 10
-0.2399817413
 20
0.0360316209
 30
0.0
 11
-0.1893574354
 21
-0.0275661986
 31
0.0
  0
LINE
  5
190
330
1B
100
AcDbEntity
  8
0
  6
Continuous
 62
     7
370
    25
100
AcDbLine
 10
-0.2776877402
 20
0.110229077
 30
0.0
 11
-0.2501121232
 21
0.110229077
 31
0.0
  0
LINE
  5
191
330
1B
100
AcDbEntity
  8
0
  6
Continuous
 62
     7
370
    25
100
AcDbLine
 10
-0.2776877402
 20
-0.0275661986
 30
0.0
 11
-0.2776877402
 21
0.110229077
 31
0.0
  0
LINE
  5
192
330
1B
100
AcDbEntity
  8
0
  6
Continuous
 62
     7
370
    25
100
AcDbLine
 10
-0.0179966439
 20
0.0960962282
 30
0.0
 11
-0.0391959171
 21
0.0960962282
 31
0.0
  0
LINE
  5
193
330
1B
100
AcDbEntity
  8
0
  6
Continuous
 62
     7
370
    25
100
AcDbLine
 10
-0.0179966439
 20
-0.0275661986
 30
0.0
 11
-0.0179966439
 21
0.0960962282
 31
0.0
  0
LINE
  5
194
330
1B
100
AcDbEntity
  8
0
  6
Continuous
 62
     7
370
    25
100
AcDbLine
 10
-0.0056304012
 20
-0.0275661986
 30
0.0
 11
-0.0179966439
 21
-0.0275661986
 31
0.0
  0
LINE
  5
195
330
1B
100
AcDbEntity
  8
0
  6
Continuous
 62
     7
370
    25
100
AcDbLine
 10
-0.0056304012
 20
0.110229077
 30
0.0
 11
-0.0056304012
 21
-0.0275661986
 31
0.0
  0
LINE
  5
196
330
1B
100
AcDbEntity
  8
0
  6
Continuous
 62
     7
370
    25
100
AcDbLine
 10
-0.0311081736
 20
0.110229077
 30
0.0
 11
-0.0056304012
 21
0.110229077
 31
0.0
  0
LINE
  5
197
330
1B
100
AcDbEntity
  8
0
  6
Continuous
 62
     7
370
    25
100
AcDbLine
 10
-0.0391959171
 20
0.0960962282
 30
0.0
 11
-0.0311081736
 21
0.110229077
 31
0.0
  0
LINE
  5
198
330
1B
100
AcDbEntity
  8
0
  6
Continuous
 62
     7
370
    25
100
AcDbLine
 10
0.1515975414
 20
-0.0275661986
 30
0.0
 11
0.2050373759
 21
0.0294620545
 31
0.0
  0
LINE
  5
199
330
1B
100
AcDbEntity
  8
0
  6
Continuous
 62
     7
370
    25
100
AcDbLine
 10
0.2452276646
 20
-0.0275661986
 30
0.0
 11
0.1515975414
 21
-0.0275661986
 31
0.0
  0
LINE
  5
19A
330
1B
100
AcDbEntity
  8
0
  6
Continuous
 62
     7
370
    25
100
AcDbLine
 10
0.2452276646
 20
-0.0134333498
 30
0.0
 11
0.2452276646
 21
-0.0275661986
 31
0.0
  0
LINE
  5
19B
330
1B
100
AcDbEntity
  8
0
  6
Continuous
 62
     7
370
    25
100
AcDbLine
 10
0.1811053839
 20
-0.0134333498
 30
0.0
 11
0.2452276646
 21
-0.0134333498
 31
0.0
  0
LINE
  5
19C
330
1B
100
AcDbEntity
  8
0
  6
Continuous
 62
     7
370
    25
100
AcDbLine
 10
0.215581806
 20
0.0233617428
 30
0.0
 11
0.1811053839
 21
-0.0134333498
 31
0.0
  0
LINE
  5
19D
330
1B
100
AcDbEntity
  8
0
  6
Continuous
 62
     7
370
    25
100
AcDbLine
 10
0.1692636024
 20
0.0678305307
 30
0.0
 11
0.1568973597
 21
0.0678305307
 31
0.0
  0
LINE
  5
19E
330
1B
100
AcDbEntity
  8
0
  6
Continuous
 62
     7
370
    25
100
AcDbLine
 10
0.1109656012
 20
0.0782093415
 30
0.0
 11
0.0698920094
 21
0.01836556
 31
0.0
  0
LINE
  5
19F
330
1B
100
AcDbEntity
  8
0
  6
Continuous
 62
     7
370
    25
100
AcDbLine
 10
0.1109656012
 20
0.01836556
 30
0.0
 11
0.1109656012
 21
0.0782093415
 31
0.0
  0
LINE
  5
1A0
330
1B
100
AcDbEntity
  8
0
  6
Continuous
 62
     7
370
    25
100
AcDbLine
 10
0.0698920094
 20
0.01836556
 30
0.0
 11
0.1109656012
 21
0.01836556
 31
0.0
  0
LINE
  5
1A1
330
1B
100
AcDbEntity
  8
0
  6
Continuous
 62
     7
370
    25
100
AcDbLine
 10
1.94
 20
-0.95
 30
0.0
 11
-1.94
 21
-0.95
 31
0.0
  0
LINE
  5
1A2
330
1B
100
AcDbEntity
  8
0
  6
Continuous
 62
     7
370
    25
100
AcDbLine
 10
-1.94
 20
0.95
 30
0.0
 11
1.94
 21
0.95
 31
0.0
  0
LINE
  5
1A3
330
1B
100
AcDbEntity
  8
0
  6
Continuous
 62
     7
370
    25
100
AcDbLine
 10
-1.95
 20
-0.94
 30
0.0
 11
-1.95
 21
0.94
 31
0.0
  0
LINE
  5
1A4
330
1B
100
AcDbEntity
  8
0
  6
Continuous
 62
     7
370
    25
100
AcDbLine
 10
1.95
 20
0.94
 30
0.0
 11
1.95
 21
-0.94
 31
0.0
  0
ARC
  5
1A5
330
1B
100
AcDbEntity
  8
0
  6
Continuous
 62
     7
370
    25
100
AcDbCircle
 10
1.65
 20
0.6875
 30
0.0
 40
0.1875000000000001
100
AcDbArc
 50
113.5781784782
 51
246.4218215218
  0
ARC
  5
1A6
330
1B
100
AcDbEntity
  8
0
  6
Continuous
 62
     7
370
    25
100
AcDbCircle
 10
1.65
 20
0.0
 30
0.0
 40
0.1284999999999994
100
AcDbArc
 50
125.7082112342
 51
234.2917887658
  0
ARC
  5
1A7
330
1B
100
AcDbEntity
  8
0
  6
Continuous
 62
     7
370
    25
100
AcDbCircle
 10
1.65
 20
-0.6875
 30
0.0
 40
0.1874999999999999
100
AcDbArc
 50
113.5781784782
 51
246.4218215218
  0
ARC
  5
1A8
330
1B
100
AcDbEntity
  8
0
  6
Continuous
 62
     7
370
    25
100
AcDbCircle
 10
1.94
 20
-0.94
 30
0.0
 40
0.0100000000000002
100
AcDbArc
 50
270.0
 51
0.0
  0
ARC
  5
1A9
330
1B
100
AcDbEntity
  8
0
  6
Continuous
 62
     7
370
    25
100
AcDbCircle
 10
-1.94
 20
0.94
 30
0.0
 40
0.0099999999999998
100
AcDbArc
 50
90.0
 51
180.0
  0
ARC
  5
1AA
330
1B
100
AcDbEntity
  8
0
  6
Continuous
 62
     7
370
    25
100
AcDbCircle
 10
1.94
 20
0.94
 30
0.0
 40
0.0099999999999995
100
AcDbArc
 50
360.0
 51
90.0
  0
ARC
  5
1AB
330
1B
100
AcDbEntity
  8
0
  6
Continuous
 62
     7
370
    25
100
AcDbCircle
 10
-1.94
 20
-0.94
 30
0.0
 40
0.01
100
AcDbArc
 50
180.0
 51
270.0
  0
VIEWPORT
  5
24F
330
1B
100
AcDbEntity
  8
0
100
AcDbViewport
 10
0.0
 20
0.0
 30
0.0
 40
8.4
 41
6.4
 68
     1
 69
     1
 12
0.0
 22
0.0
 13
0.0
 23
0.0
 14
0.5
 24
0.5
 15
0.5
 25
0.5
 16
0.0
 26
0.0
 36
1.0
 17
0.0
 27
0.0
 37
0.0
 42
50.0
 43
0.0
 44
0.0
 45
3.672
 50
0.0
 51
0.0
 72
   100
 90
   557152
  1

281
     0
 71
     1
 74
     0
110
0.0
120
0.0
130
0.0
111
1.0
121
0.0
131
0.0
112
0.0
122
1.0
132
0.0
 79
     0
146
0.0
  0
ENDBLK
  5
1D
330
1B
100
AcDbEntity
  8
0
100
AcDbBlockEnd
  0
BLOCK
  5
24
330
23
100
AcDbEntity
  8
0
100
AcDbBlockBegin
  2
*Paper_Space1
 70
     0
 10
0.0
 20
0.0
 30
0.0
  3
*Paper_Space1
  1

  0
SPLINE
  5
1CB
330
23
100
AcDbEntity
  8
0
  6
Continuous
 62
     7
370
    25
100
AcDbSpline
210
0.0
220
0.0
230
1.0
 70
     8
 71
     3
 72
    54
 73
    50
 74
     0
 42
0.000000001
 43
0.00000001
 40
0.0
 40
0.0
 40
0.0
 40
0.0
 40
0.0625000000000013
 40
0.0625000000000013
 40
0.0937500000000019
 40
0.0937500000000019
 40
0.1250000000000026
 40
0.1250000000000026
 40
0.1562500000000032
 40
0.1562500000000032
 40
0.1875000000000038
 40
0.1875000000000038
 40
0.2500000000000049
 40
0.2500000000000049
 40
0.3125000000000059
 40
0.3125000000000059
 40
0.375000000000007
 40
0.375000000000007
 40
0.437500000000008
 40
0.437500000000008
 40
0.4687500000000084
 40
0.4687500000000084
 40
0.5000000000000089
 40
0.5000000000000089
 40
0.5312500000000093
 40
0.5312500000000093
 40
0.5625000000000097
 40
0.5625000000000097
 40
0.6250000000000103
 40
0.6250000000000103
 40
0.6562500000000103
 40
0.6562500000000103
 40
0.6875000000000102
 40
0.6875000000000102
 40
0.7500000000000095
 40
0.7500000000000095
 40
0.7812500000000088
 40
0.7812500000000088
 40
0.8125000000000079
 40
0.8125000000000079
 40
0.8437500000000071
 40
0.8437500000000071
 40
0.8750000000000063
 40
0.8750000000000063
 40
0.9375000000000037
 40
0.9375000000000037
 40
0.9687500000000019
 40
0.9687500000000019
 40
1.0
 40
1.0
 40
1.0
 40
1.0
 10
-1.799999999999999
 20
-0.8593465885608442
 30
0.0
 10
-1.799999999999999
 20
-0.8659144861512348
 30
0.0
 10
-1.79909769027152
 20
-0.8703799005131694
 30
0.0
 10
-1.796096886825579
 20
-0.874058049091391
 30
0.0
 10
-1.794813163228865
 20
-0.874764945907708
 30
0.0
 10
-1.791753430300858
 20
-0.8751344456839859
 30
0.0
 10
-1.789971001193656
 20
-0.8748103191332626
 30
0.0
 10
-1.785909435801794
 20
-0.8731901910143506
 30
0.0
 10
-1.783613131351852
 20
-0.8718811492383123
 30
0.0
 10
-1.778615451921797
 20
-0.8683558017749712
 30
0.0
 10
-1.775926276451082
 20
-0.866153185662471
 30
0.0
 10
-1.767355316147403
 20
-0.8583147252572603
 30
0.0
 10
-1.760893019518194
 20
-0.851365039913015
 30
0.0
 10
-1.747501571489467
 20
-0.8348664885474386
 30
0.0
 10
-1.740522129777483
 20
-0.825287356085137
 30
0.0
 10
-1.726677439439271
 20
-0.803467513659497
 30
0.0
 10
-1.720002614406746
 20
-0.7915411465862843
 30
0.0
 10
-1.707972446387724
 20
-0.76530460741953
 30
0.0
 10
-1.702569121200592
 20
-0.750756256426938
 30
0.0
 10
-1.696895235439426
 20
-0.7278619119209807
 30
0.0
 10
-1.695391144365651
 20
-0.7200208356537846
 30
0.0
 10
-1.693332783790409
 20
-0.7038549393112926
 30
0.0
 10
-1.692808763471131
 20
-0.6957155147457932
 30
0.0
 10
-1.692798446376606
 20
-0.6795283248903601
 30
0.0
 10
-1.693307788179902
 20
-0.6714476969162968
 30
0.0
 10
-1.695335707132257
 20
-0.6553123380454736
 30
0.0
 10
-1.696843188702722
 20
-0.6473830904993797
 30
0.0
 10
-1.702509055739797
 20
-0.6244176218868731
 30
0.0
 10
-1.70790006109406
 20
-0.6098708465822299
 30
0.0
 10
-1.716944014013107
 20
-0.5901206731673115
 30
0.0
 10
-1.720131975684201
 20
-0.5838353919714564
 30
0.0
 10
-1.726736679470531
 20
-0.5718002225690951
 30
0.0
 10
-1.73017188950766
 20
-0.5660229412416035
 30
0.0
 10
-1.740547405280286
 20
-0.5496771125399778
 30
0.0
 10
-1.747501389594039
 20
-0.5401319020326351
 30
0.0
 10
-1.757572542860684
 20
-0.5277267790812631
 30
0.0
 10
-1.760889946438052
 20
-0.5238973425583309
 30
0.0
 10
-1.76720421945598
 20
-0.5170790886937123
 30
0.0
 10
-1.770212814173124
 20
-0.5140729574953313
 30
0.0
 10
-1.77589348927013
 20
-0.50887583447488
 30
0.0
 10
-1.778565746794586
 20
-0.5066846749306289
 30
0.0
 10
-1.783531460544465
 20
-0.5031711877288381
 30
0.0
 10
-1.78584236562404
 20
-0.5018429869880825
 30
0.0
 10
-1.791987559315372
 20
-0.4993726725753276
 30
0.0
 10
-1.79502941136859
 20
-0.4996922816033895
 30
0.0
 10
-1.798053752966197
 20
-0.5033122610501815
 30
0.0
 10
-1.798803988008608
 20
-0.5050665676505265
 30
0.0
 10
-1.799772716737905
 20
-0.5095903492167435
 30
0.0
 10
-1.799999999999998
 20
-0.5123618274568339
 30
0.0
 10
-1.799999999999999
 20
-0.5156534114391557
 30
0.0
  0
SPLINE
  5
1CD
330
23
100
AcDbEntity
  8
0
  6
Continuous
 62
     7
370
    25
100
AcDbSpline
210
0.0
220
0.0
230
1.0
 70
     8
 71
     3
 72
    52
 73
    48
 74
     0
 42
0.000000001
 43
0.00000001
 40
0.0
 40
0.0
 40
0.0
 40
0.0
 40
0.0625000000000003
 40
0.0625000000000003
 40
0.0937500000000011
 40
0.0937500000000011
 40
0.1250000000000019
 40
0.1250000000000019
 40
0.1562500000000028
 40
0.1562500000000028
 40
0.1875000000000036
 40
0.1875000000000036
 40
0.2500000000000035
 40
0.2500000000000035
 40
0.2812500000000043
 40
0.2812500000000043
 40
0.3125000000000051
 40
0.3125000000000051
 40
0.3750000000000051
 40
0.3750000000000051
 40
0.4375000000000051
 40
0.4375000000000051
 40
0.4687500000000051
 40
0.4687500000000051
 40
0.5000000000000051
 40
0.5000000000000051
 40
0.5625000000000052
 40
0.5625000000000052
 40
0.6250000000000053
 40
0.6250000000000053
 40
0.6875000000000053
 40
0.6875000000000053
 40
0.7187500000000054
 40
0.7187500000000054
 40
0.7500000000000054
 40
0.7500000000000054
 40
0.8125000000000051
 40
0.8125000000000051
 40
0.8437500000000042
 40
0.8437500000000042
 40
0.8750000000000033
 40
0.8750000000000033
 40
0.9062500000000026
 40
0.9062500000000026
 40
0.9375000000000017
 40
0.9375000000000017
 40
1.0
 40
1.0
 40
1.0
 40
1.0
 10
-1.799999999999999
 20
-0.1043419857967068
 30
0.0
 10
-1.8
 20
-0.111457511049041
 30
0.0
 10
-1.799610449281733
 20
-0.1170190254985915
 30
0.0
 10
-1.798152242407149
 20
-0.1230900870773599
 30
0.0
 10
-1.797517487420372
 20
-0.1247175146537854
 30
0.0
 10
-1.795964192044345
 20
-0.1271035072538728
 30
0.0
 10
-1.795042243402304
 20
-0.127880801125413
 30
0.0
 10
-1.792891883928695
 20
-0.1286200144361976
 30
0.0
 10
-1.791651966185824
 20
-0.1285754434899127
 30
0.0
 10
-1.788924046009064
 20
-0.1276773064843798
 30
0.0
 10
-1.787435169150498
 20
-0.126831716830689
 30
0.0
 10
-1.782619998136836
 20
-0.1231591447530885
 30
0.0
 10
-1.778904538006554
 20
-0.1191403401189173
 30
0.0
 10
-1.773084559346358
 20
-0.1112206769788717
 30
0.0
 10
-1.771094376005692
 20
-0.1082577257103209
 30
0.0
 10
-1.767054021229691
 20
-0.1016745807693184
 30
0.0
 10
-1.765003095621013
 20
-0.0980477234735729
 30
0.0
 10
-1.758998977424776
 20
-0.0864500929752491
 30
0.0
 10
-1.755127889704785
 20
-0.0776903859470291
 30
0.0
 10
-1.748183793354523
 20
-0.0578493479153917
 30
0.0
 10
-1.745282658325595
 20
-0.0472398197086219
 30
0.0
 10
-1.742190199348668
 20
-0.0301722734160725
 30
0.0
 10
-1.741367114142102
 20
-0.0242216909028404
 30
0.0
 10
-1.740271076520212
 20
-0.0122956689057255
 30
0.0
 10
-1.739990153840851
 20
-0.0063127713304511
 30
0.0
 10
-1.739962082139388
 20
0.0116954154947709
 30
0.0
 10
-1.741087186318958
 20
0.0239127874913376
 30
0.0
 10
-1.745167271490263
 20
0.0467671837199061
 30
0.0
 10
-1.748144801235042
 20
0.0577021975116105
 30
0.0
 10
-1.755010004755159
 20
0.0773884927173133
 30
0.0
 10
-1.758965701969985
 20
0.0863787523035642
 30
0.0
 10
-1.764971951404428
 20
0.0979910556241075
 30
0.0
 10
-1.766994428294579
 20
0.1015716559042452
 30
0.0
 10
-1.771030547824203
 20
0.1081593791170401
 30
0.0
 10
-1.773055851496446
 20
0.1111798816096626
 30
0.0
 10
-1.778903695180304
 20
0.1191426285616793
 30
0.0
 10
-1.782535399734356
 20
0.1230816729122036
 30
0.0
 10
-1.787398615018497
 20
0.1268101543288223
 30
0.0
 10
-1.788909527100242
 20
0.1276689457472597
 30
0.0
 10
-1.791625554272762
 20
0.1285702746313206
 30
0.0
 10
-1.792843126590453
 20
0.1286230372157298
 30
0.0
 10
-1.794996773952696
 20
0.1279095806155415
 30
0.0
 10
-1.795938530286777
 20
0.1271336737046574
 30
0.0
 10
-1.797510124032363
 20
0.1247378849531078
 30
0.0
 10
-1.798135857262848
 20
0.1231354320986188
 30
0.0
 10
-1.799593359578808
 20
0.1171347637539628
 30
0.0
 10
-1.799999999999999
 20
0.1114694816145577
 30
0.0
 10
-1.799999999999999
 20
0.1043419857967067
 30
0.0
  0
SPLINE
  5
1CF
330
23
100
AcDbEntity
  8
0
  6
Continuous
 62
     7
370
    25
100
AcDbSpline
210
0.0
220
0.0
230
1.0
 70
     8
 71
     3
 72
    54
 73
    50
 74
     0
 42
0.000000001
 43
0.00000001
 40
0.0
 40
0.0
 40
0.0
 40
0.0
 40
0.0625000000000008
 40
0.0625000000000008
 40
0.0937500000000013
 40
0.0937500000000013
 40
0.1250000000000017
 40
0.1250000000000017
 40
0.1562500000000022
 40
0.1562500000000022
 40
0.1875000000000027
 40
0.1875000000000027
 40
0.2500000000000032
 40
0.2500000000000032
 40
0.3125000000000037
 40
0.3125000000000037
 40
0.3750000000000042
 40
0.3750000000000042
 40
0.4375000000000049
 40
0.4375000000000049
 40
0.4687500000000052
 40
0.4687500000000052
 40
0.5000000000000054
 40
0.5000000000000054
 40
0.5312500000000057
 40
0.5312500000000057
 40
0.5625000000000059
 40
0.5625000000000059
 40
0.6250000000000061
 40
0.6250000000000061
 40
0.6562500000000058
 40
0.6562500000000058
 40
0.6875000000000054
 40
0.6875000000000054
 40
0.7500000000000047
 40
0.7500000000000047
 40
0.7812500000000042
 40
0.7812500000000042
 40
0.8125000000000038
 40
0.8125000000000038
 40
0.8437500000000033
 40
0.8437500000000033
 40
0.8750000000000029
 40
0.8750000000000029
 40
0.9375000000000009
 40
0.9375000000000009
 40
0.9687500000000004
 40
0.9687500000000004
 40
1.0
 40
1.0
 40
1.0
 40
1.0
 10
-1.799999999999999
 20
0.5156534114391557
 30
0.0
 10
-1.799999999999999
 20
0.5090855138487654
 30
0.0
 10
-1.799097690271519
 20
0.5046200994868303
 30
0.0
 10
-1.796096886825579
 20
0.5009419509086089
 30
0.0
 10
-1.794813163228865
 20
0.5002350540922921
 30
0.0
 10
-1.791753430300858
 20
0.4998655543160142
 30
0.0
 10
-1.789971001193656
 20
0.5001896808667375
 30
0.0
 10
-1.785909435801794
 20
0.5018098089856493
 30
0.0
 10
-1.783613131351851
 20
0.5031188507616876
 30
0.0
 10
-1.778615451921797
 20
0.5066441982250289
 30
0.0
 10
-1.775926276451082
 20
0.508846814337529
 30
0.0
 10
-1.767355316147403
 20
0.5166852747427392
 30
0.0
 10
-1.760893019518194
 20
0.5236349600869852
 30
0.0
 10
-1.747501571489467
 20
0.5401335114525612
 30
0.0
 10
-1.740522129777483
 20
0.5497126439148632
 30
0.0
 10
-1.726677439439272
 20
0.5715324863405031
 30
0.0
 10
-1.720002614406746
 20
0.5834588534137154
 30
0.0
 10
-1.707972446387724
 20
0.60969539258047
 30
0.0
 10
-1.702569121200592
 20
0.624243743573062
 30
0.0
 10
-1.696895235439426
 20
0.6471380880790196
 30
0.0
 10
-1.695391144365651
 20
0.6549791643462153
 30
0.0
 10
-1.693332783790409
 20
0.6711450606887068
 30
0.0
 10
-1.692808763471131
 20
0.6792844852542067
 30
0.0
 10
-1.692798446376607
 20
0.69547167510964
 30
0.0
 10
-1.693307788179902
 20
0.7035523030837032
 30
0.0
 10
-1.695335707132258
 20
0.7196876619545265
 30
0.0
 10
-1.696843188702722
 20
0.7276169095006202
 30
0.0
 10
-1.702509055739797
 20
0.7505823781131269
 30
0.0
 10
-1.707900061094061
 20
0.7651291534177699
 30
0.0
 10
-1.716944014013106
 20
0.7848793268326884
 30
0.0
 10
-1.720131975684201
 20
0.791164608028544
 30
0.0
 10
-1.726736679470531
 20
0.8031997774309051
 30
0.0
 10
-1.73017188950766
 20
0.8089770587583969
 30
0.0
 10
-1.740547405280286
 20
0.8253228874600222
 30
0.0
 10
-1.74750138959404
 20
0.8348680979673652
 30
0.0
 10
-1.757572542860684
 20
0.8472732209187371
 30
0.0
 10
-1.760889946438053
 20
0.8511026574416694
 30
0.0
 10
-1.767204219455979
 20
0.8579209113062876
 30
0.0
 10
-1.770212814173124
 20
0.8609270425046689
 30
0.0
 10
-1.77589348927013
 20
0.86612416552512
 30
0.0
 10
-1.778565746794586
 20
0.8683153250693715
 30
0.0
 10
-1.783531460544465
 20
0.8718288122711625
 30
0.0
 10
-1.78584236562404
 20
0.8731570130119175
 30
0.0
 10
-1.791987559315373
 20
0.8756273274246724
 30
0.0
 10
-1.79502941136859
 20
0.8753077183966105
 30
0.0
 10
-1.798053752966198
 20
0.8716877389498188
 30
0.0
 10
-1.798803988008608
 20
0.869933432349474
 30
0.0
 10
-1.799772716737905
 20
0.8654096507832565
 30
0.0
 10
-1.799999999999999
 20
0.8626381725431663
 30
0.0
 10
-1.799999999999999
 20
0.8593465885608442
 30
0.0
  0
SPLINE
  5
1E9
330
23
100
AcDbEntity
  8
0
  6
Continuous
 62
     7
370
    25
100
AcDbSpline
210
0.0
220
0.0
230
1.0
 70
     8
 71
     3
 72
    10
 73
     6
 74
     0
 42
0.000000001
 43
0.00000001
 40
0.0
 40
0.0
 40
0.0
 40
0.0
 40
0.3909271179095934
 40
0.7167437125653707
 40
1.0
 40
1.0
 40
1.0
 40
1.0
 10
-0.7997439074087352
 20
0.6750168438688201
 30
0.0
 10
-0.8175842666273605
 20
0.6703390585526123
 30
0.0
 10
-0.850293599682159
 20
0.6617625923508025
 30
0.0
 10
-0.8924403959548575
 20
0.6409999732647019
 30
0.0
 10
-0.9141590838895115
 20
0.6214366089815785
 30
0.0
 10
-0.9242596073132557
 20
0.6123384433933324
 30
0.0
  0
SPLINE
  5
1EA
330
23
100
AcDbEntity
  8
0
  6
Continuous
 62
     7
370
    25
100
AcDbSpline
210
0.0
220
0.0
230
1.0
 70
     8
 71
     3
 72
    11
 73
     7
 74
     0
 42
0.000000001
 43
0.00000001
 40
0.0
 40
0.0
 40
0.0
 40
0.0
 40
0.1393859698188261
 40
0.3749110821821117
 40
0.7630162164701628
 40
1.0
 40
1.0
 40
1.0
 40
1.0
 10
-0.9250000000000002
 20
0.3886118539346429
 30
0.0
 10
-0.9202741469041155
 20
0.3837325863618433
 30
0.0
 10
-0.9075628625423193
 20
0.3706086579754206
 30
0.0
 10
-0.8770125443948392
 20
0.3512512672012787
 30
0.0
 10
-0.8401602460207159
 20
0.3342690634784319
 30
0.0
 10
-0.8110400515346324
 20
0.3280268424104624
 30
0.0
 10
-0.8000000000000004
 20
0.325660290830119
 30
0.0
  0
SPLINE
  5
1EB
330
23
100
AcDbEntity
  8
0
  6
Continuous
 62
     7
370
    25
100
AcDbSpline
210
0.0
220
0.0
230
1.0
 70
     8
 71
     3
 72
    10
 73
     6
 74
     0
 42
0.000000001
 43
0.00000001
 40
0.0
 40
0.0
 40
0.0
 40
0.0
 40
0.3909271179096146
 40
0.7167437125653893
 40
1.0
 40
1.0
 40
1.0
 40
1.0
 10
-0.7997439074087354
 20
-0.3249831561311795
 30
0.0
 10
-0.8175842666273618
 20
-0.3296609414473878
 30
0.0
 10
-0.8502935996821606
 20
-0.3382374076491982
 30
0.0
 10
-0.8924403959548597
 20
-0.3590000267352987
 30
0.0
 10
-0.9141590838895126
 20
-0.378563391018422
 30
0.0
 10
-0.9242596073132557
 20
-0.3876615566066675
 30
0.0
  0
SPLINE
  5
1EC
330
23
100
AcDbEntity
  8
0
  6
Continuous
 62
     7
370
    25
100
AcDbSpline
210
0.0
220
0.0
230
1.0
 70
     8
 71
     3
 72
    11
 73
     7
 74
     0
 42
0.000000001
 43
0.00000001
 40
0.0
 40
0.0
 40
0.0
 40
0.0
 40
0.1393859698188365
 40
0.3749110821821259
 40
0.7630162164701817
 40
1.0
 40
1.0
 40
1.0
 40
1.0
 10
-0.9250000000000002
 20
-0.6113881460653572
 30
0.0
 10
-0.9202741469041149
 20
-0.616267413638157
 30
0.0
 10
-0.9075628625423184
 20
-0.62939134202458
 30
0.0
 10
-0.877012544394837
 20
-0.6487487327987222
 30
0.0
 10
-0.840160246020714
 20
-0.6657309365215685
 30
0.0
 10
-0.8110400515346312
 20
-0.6719731575895378
 30
0.0
 10
-0.8000000000000002
 20
-0.6743397091698811
 30
0.0
  0
LINE
  5
1EF
330
23
100
AcDbEntity
  8
0
  6
Continuous
 62
     7
370
    25
100
AcDbLine
 10
-0.925
 20
0.94
 30
0.0
 11
-1.8
 21
0.94
 31
0.0
  0
LINE
  5
1F0
330
23
100
AcDbEntity
  8
0
  6
Continuous
 62
     7
370
    25
100
AcDbLine
 10
1.8
 20
0.94
 30
0.0
 11
-0.8
 21
0.94
 31
0.0
  0
LINE
  5
1F1
330
23
100
AcDbEntity
  8
0
  6
Continuous
 62
     7
370
    25
100
AcDbLine
 10
-0.1390064387
 20
-0.95
 30
0.0
 11
-0.1390064387
 21
0.95
 31
0.0
  0
LINE
  5
1F2
330
23
100
AcDbEntity
  8
0
  6
Continuous
 62
     7
370
    25
100
AcDbLine
 10
-0.8
 20
-0.94
 30
0.0
 11
1.8
 21
-0.94
 31
0.0
  0
LINE
  5
1F3
330
23
100
AcDbEntity
  8
0
  6
Continuous
 62
     7
370
    25
100
AcDbLine
 10
-0.8
 20
-0.94
 30
0.0
 11
-0.8
 21
0.94
 31
0.0
  0
LINE
  5
1F4
330
23
100
AcDbEntity
  8
0
  6
Continuous
 62
     7
370
    25
100
AcDbLine
 10
-1.8
 20
-0.94
 30
0.0
 11
-0.925
 21
-0.94
 31
0.0
  0
LINE
  5
1F5
330
23
100
AcDbEntity
  8
0
  6
Continuous
 62
     7
370
    25
100
AcDbLine
 10
-1.425
 20
0.95
 30
0.0
 11
-1.425
 21
-0.95
 31
0.0
  0
LINE
  5
1F6
330
23
100
AcDbEntity
  8
0
  6
Continuous
 62
     7
370
    25
100
AcDbLine
 10
-1.79
 20
0.95
 30
0.0
 11
1.79
 21
0.95
 31
0.0
  0
LINE
  5
1F7
330
23
100
AcDbEntity
  8
0
  6
Continuous
 62
     7
370
    25
100
AcDbLine
 10
-0.925
 20
-0.94
 30
0.0
 11
-0.925
 21
0.94
 31
0.0
  0
LINE
  5
1F8
330
23
100
AcDbEntity
  8
0
  6
Continuous
 62
     7
370
    25
100
AcDbLine
 10
1.79
 20
-0.95
 30
0.0
 11
-1.79
 21
-0.95
 31
0.0
  0
LINE
  5
1F9
330
23
100
AcDbEntity
  8
0
  6
Continuous
 62
     7
370
    25
100
AcDbLine
 10
0.1405020585
 20
0.94
 30
0.0
 11
0.1405020585
 21
-0.94
 31
0.0
  0
LINE
  5
1FA
330
23
100
AcDbEntity
  8
0
  6
Continuous
 62
     7
370
    25
100
AcDbLine
 10
-1.8
 20
-0.94
 30
0.0
 11
-1.8
 21
0.94
 31
0.0
  0
LINE
  5
1FB
330
23
100
AcDbEntity
  8
0
  6
Continuous
 62
     7
370
    25
100
AcDbLine
 10
0.6995190528
 20
0.95
 30
0.0
 11
0.6995190528
 21
-0.95
 31
0.0
  0
LINE
  5
1FC
330
23
100
AcDbEntity
  8
0
  6
Continuous
 62
     7
370
    25
100
AcDbLine
 10
1.8
 20
-0.94
 30
0.0
 11
1.8
 21
0.94
 31
0.0
  0
LINE
  5
1FD
330
23
100
AcDbEntity
  8
0
  6
Continuous
 62
     7
370
    25
100
AcDbLine
 10
-0.8
 20
0.875
 30
0.0
 11
-0.925
 21
0.875
 31
0.0
  0
LINE
  5
1FE
330
23
100
AcDbEntity
  8
0
  6
Continuous
 62
     7
370
    25
100
AcDbLine
 10
-0.925
 20
-0.875
 30
0.0
 11
-0.8
 21
-0.875
 31
0.0
  0
LINE
  5
1FF
330
23
100
AcDbEntity
  8
0
  6
Continuous
 62
     8
370
    25
100
AcDbLine
 10
-0.7993969262
 20
0.9434202014
 30
0.0
 11
-0.9256030738
 21
0.9434202014
 31
0.0
  0
LINE
  5
200
330
23
100
AcDbEntity
  8
0
  6
Continuous
 62
     8
370
    25
100
AcDbLine
 10
-0.9256030738
 20
-0.9434202014
 30
0.0
 11
-0.7993969262
 21
-0.9434202014
 31
0.0
  0
ARC
  5
201
330
23
100
AcDbEntity
  8
0
  6
Continuous
 62
     7
370
    25
100
AcDbCircle
 10
-1.79
 20
0.94
 30
0.0
 40
0.0099999999999998
100
AcDbArc
 50
90.0
 51
180.0
  0
ARC
  5
202
330
23
100
AcDbEntity
  8
0
  6
Continuous
 62
     7
370
    25
100
AcDbCircle
 10
-1.79
 20
-0.94
 30
0.0
 40
0.0100000000000001
100
AcDbArc
 50
180.0
 51
270.0
  0
ARC
  5
203
330
23
100
AcDbEntity
  8
0
  6
Continuous
 62
     7
370
    25
100
AcDbCircle
 10
-0.79
 20
0.94
 30
0.0
 40
0.0100000000000001
100
AcDbArc
 50
90.0
 51
180.0
  0
ARC
  5
204
330
23
100
AcDbEntity
  8
0
  6
Continuous
 62
     7
370
    25
100
AcDbCircle
 10
-0.935
 20
-0.94
 30
0.0
 40
0.01
100
AcDbArc
 50
270.0
 51
0.0
  0
ARC
  5
205
330
23
100
AcDbEntity
  8
0
  6
Continuous
 62
     7
370
    25
100
AcDbCircle
 10
-0.79
 20
-0.94
 30
0.0
 40
0.01
100
AcDbArc
 50
180.0
 51
270.0
  0
ARC
  5
206
330
23
100
AcDbEntity
  8
0
  6
Continuous
 62
     7
370
    25
100
AcDbCircle
 10
0.1315577866
 20
-0.9411111111
 30
0.0
 40
0.0090130221291879
100
AcDbArc
 50
279.520202145
 51
7.081347454
  0
ARC
  5
207
330
23
100
AcDbEntity
  8
0
  6
Continuous
 62
     7
370
    25
100
AcDbCircle
 10
0.1315577866
 20
0.9411111111
 30
0.0
 40
0.0090130221291885
100
AcDbArc
 50
352.918652546
 51
80.479797855
  0
ARC
  5
208
330
23
100
AcDbEntity
  8
0
  6
Continuous
 62
     7
370
    25
100
AcDbCircle
 10
-0.935
 20
0.94
 30
0.0
 40
0.0100000000000001
100
AcDbArc
 50
360.0
 51
90.0
  0
ARC
  5
209
330
23
100
AcDbEntity
  8
0
  6
Continuous
 62
     7
370
    25
100
AcDbCircle
 10
1.79
 20
-0.94
 30
0.0
 40
0.01
100
AcDbArc
 50
270.0
 51
0.0
  0
ARC
  5
20A
330
23
100
AcDbEntity
  8
0
  6
Continuous
 62
     7
370
    25
100
AcDbCircle
 10
1.79
 20
0.94
 30
0.0
 40
0.0099999999999998
100
AcDbArc
 50
360.0
 51
90.0
  0
VIEWPORT
  5
251
330
23
100
AcDbEntity
  8
0
100
AcDbViewport
 10
0.0
 20
0.0
 30
0.0
 40
8.4
 41
6.4
 68
     1
 69
     1
 12
0.0
 22
0.0
 13
0.0
 23
0.0
 14
0.5
 24
0.5
 15
0.5
 25
0.5
 16
0.0
 26
0.0
 36
1.0
 17
0.0
 27
0.0
 37
0.0
 42
50.0
 43
0.0
 44
0.0
 45
3.672
 50
0.0
 51
0.0
 72
   100
 90
   557152
  1

281
     0
 71
     1
 74
     0
110
0.0
120
0.0
130
0.0
111
1.0
121
0.0
131
0.0
112
0.0
122
1.0
132
0.0
 79
     0
146
0.0
  0
ENDBLK
  5
25
330
23
100
AcDbEntity
  8
0
100
AcDbBlockEnd
  0
ENDSEC
  0
SECTION
  2
ENTITIES
  0
SPLINE
  5
82
330
1F
100
AcDbEntity
  8
0
  6
Continuous
 62
     7
370
    25
100
AcDbSpline
210
0.0
220
0.0
230
1.0
 70
     8
 71
     3
 72
     8
 73
     4
 74
     0
 42
0.000000001
 43
0.00000001
 40
0.0
 40
0.0
 40
0.0
 40
0.0
 40
1.0
 40
1.0
 40
1.0
 40
1.0
 10
1.130534272303979
 20
-0.9256030737921412
 30
0.0
 10
1.131292482625924
 20
-0.9270956438582704
 30
0.0
 10
1.133329381488872
 20
-0.9311089031545666
 30
0.0
 10
1.135297779150782
 20
-0.9350000000000003
 30
0.0
  0
SPLINE
  5
83
330
1F
100
AcDbEntity
  8
0
  6
Continuous
 62
     7
370
    25
100
AcDbSpline
210
0.0
220
0.0
230
1.0
 70
     8
 71
     3
 72
     8
 73
     4
 74
     0
 42
0.000000001
 43
0.00000001
 40
0.0
 40
0.0
 40
0.0
 40
0.0
 40
1.0
 40
1.0
 40
1.0
 40
1.0
 10
1.130534272303979
 20
-0.9256030737921412
 30
0.0
 10
1.130322918745631
 20
-0.9251870151004694
 30
0.0
 10
1.129939633973897
 20
-0.9250000000000003
 30
0.0
 10
1.129433213353217
 20
-0.9250000000000003
 30
0.0
  0
SPLINE
  5
86
330
1F
100
AcDbEntity
  8
0
  6
Continuous
 62
     7
370
    25
100
AcDbSpline
210
0.0
220
0.0
230
1.0
 70
     8
 71
     3
 72
     8
 73
     4
 74
     0
 42
0.000000001
 43
0.00000001
 40
0.0
 40
0.0
 40
0.0
 40
0.0
 40
1.0
 40
1.0
 40
1.0
 40
1.0
 10
1.210885784632628
 20
-0.8000000000000002
 30
0.0
 10
1.211398168376768
 20
-0.8000000000000002
 30
0.0
 10
1.211999272183865
 20
-0.7997852299590228
 30
0.0
 10
1.212671478975208
 20
-0.7993969262078593
 30
0.0
  0
SPLINE
  5
87
330
1F
100
AcDbEntity
  8
0
  6
Continuous
 62
     7
370
    25
100
AcDbSpline
210
0.0
220
0.0
230
1.0
 70
     8
 71
     3
 72
    12
 73
     8
 74
     0
 42
0.000000001
 43
0.00000001
 40
0.0
 40
0.0
 40
0.0
 40
0.0
 40
0.2499999999999976
 40
0.2499999999999976
 40
0.4999999999999952
 40
0.4999999999999952
 40
1.0
 40
1.0
 40
1.0
 40
1.0
 10
1.212671478975208
 20
-0.7993969262078593
 30
0.0
 10
1.213555130354696
 20
-0.7988864803900023
 30
0.0
 10
1.214763700089559
 20
-0.7981876968522145
 30
0.0
 10
1.217341406482479
 20
-0.7966945197573576
 30
0.0
 10
1.218710001300602
 20
-0.7959005363067307
 30
0.0
 10
1.222963033828681
 20
-0.7934286442024132
 30
0.0
 10
1.225899350877393
 20
-0.7917160684380931
 30
0.0
 10
1.228831171212994
 20
-0.7900000000000001
 30
0.0
  0
SPLINE
  5
A5
330
1F
100
AcDbEntity
  8
0
  6
Continuous
 62
     7
370
    25
100
AcDbSpline
210
0.0
220
0.0
230
1.0
 70
    24
 71
     3
 72
     8
 73
     4
 74
     0
 42
0.000000001
 43
0.00000001
 40
0.0
 40
0.0
 40
0.0
 40
0.0
 40
1.0
 40
1.0
 40
1.0
 40
1.0
 10
1.210885784632628
 20
-0.8000000000000002
 30
0.0
 10
1.201773008606358
 20
-0.8000000000000002
 30
0.0
 10
1.192638092360489
 20
-0.8000000000000002
 30
0.0
 10
1.183480037854462
 20
-0.8000000000000002
 30
0.0
  0
SPLINE
  5
A7
330
1F
100
AcDbEntity
  8
0
  6
Continuous
 62
     7
370
    25
100
AcDbSpline
210
0.0
220
0.0
230
1.0
 70
    24
 71
     3
 72
     8
 73
     4
 74
     0
 42
0.000000001
 43
0.00000001
 40
0.0
 40
0.0
 40
0.0
 40
0.0
 40
1.0
 40
1.0
 40
1.0
 40
1.0
 10
1.1
 20
-0.9250000000000003
 30
0.0
 10
1.109848698670596
 20
-0.9250000000000003
 30
0.0
 10
1.119659416182519
 20
-0.9250000000000003
 30
0.0
 10
1.129433213353217
 20
-0.9250000000000003
 30
0.0
  0
LINE
  5
A8
330
1F
100
AcDbEntity
  8
0
  6
Continuous
 62
     7
370
    25
100
AcDbLine
 10
1.94
 20
-1.425
 30
0.0
 11
1.95
 21
-1.425
 31
0.0
  0
LINE
  5
A9
330
1F
100
AcDbEntity
  8
0
  6
Continuous
 62
     7
370
    25
100
AcDbLine
 10
1.575
 20
-1.79
 30
0.0
 11
1.575
 21
-1.8
 31
0.0
  0
LINE
  5
AA
330
1F
100
AcDbEntity
  8
0
  6
Continuous
 62
     7
370
    25
100
AcDbLine
 10
1.95
 20
-0.1390064387
 30
0.0
 11
1.94
 21
-0.1390064387
 31
0.0
  0
LINE
  5
AB
330
1F
100
AcDbEntity
  8
0
  6
Continuous
 62
     7
370
    25
100
AcDbLine
 10
1.825
 20
0.1405020585
 30
0.0
 11
1.8183333333
 21
0.1330484985
 31
0.0
  0
LINE
  5
AC
330
1F
100
AcDbEntity
  8
0
  6
Continuous
 62
     7
370
    25
100
AcDbLine
 10
1.94
 20
-1.425
 30
0.0
 11
1.94
 21
-0.935
 31
0.0
  0
LINE
  5
AD
330
1F
100
AcDbEntity
  8
0
  6
Continuous
 62
     7
370
    25
100
AcDbLine
 10
1.94
 20
-0.935
 30
0.0
 11
1.95
 21
-0.925
 31
0.0
  0
LINE
  5
AE
330
1F
100
AcDbEntity
  8
0
  6
Continuous
 62
     7
370
    25
100
AcDbLine
 10
1.95
 20
-0.925
 30
0.0
 11
1.95
 21
-1.425
 31
0.0
  0
LINE
  5
AF
330
1F
100
AcDbEntity
  8
0
  6
Continuous
 62
     7
370
    25
100
AcDbLine
 10
1.95
 20
-0.1390064387
 30
0.0
 11
1.95
 21
-0.8
 31
0.0
  0
LINE
  5
B0
330
1F
100
AcDbEntity
  8
0
  6
Continuous
 62
     7
370
    25
100
AcDbLine
 10
1.95
 20
-0.8
 30
0.0
 11
1.94
 21
-0.79
 31
0.0
  0
LINE
  5
B1
330
1F
100
AcDbEntity
  8
0
  6
Continuous
 62
     7
370
    25
100
AcDbLine
 10
1.94
 20
-0.79
 30
0.0
 11
1.94
 21
-0.1390064387
 31
0.0
  0
LINE
  5
B2
330
1F
100
AcDbEntity
  8
0
  6
Continuous
 62
     7
370
    25
100
AcDbLine
 10
1.94
 20
-0.935
 30
0.0
 11
1.1352977792
 21
-0.935
 31
0.0
  0
LINE
  5
B3
330
1F
100
AcDbEntity
  8
0
  6
Continuous
 62
     7
370
    25
100
AcDbLine
 10
1.1294332134
 20
-0.925
 30
0.0
 11
1.95
 21
-0.925
 31
0.0
  0
LINE
  5
B4
330
1F
100
AcDbEntity
  8
0
  6
Continuous
 62
     7
370
    25
100
AcDbLine
 10
1.95
 20
-0.8
 30
0.0
 11
1.2108857846
 21
-0.8
 31
0.0
  0
LINE
  5
B5
330
1F
100
AcDbEntity
  8
0
  6
Continuous
 62
     7
370
    25
100
AcDbLine
 10
1.2288311712
 20
-0.79
 30
0.0
 11
1.94
 21
-0.79
 31
0.0
  0
LINE
  5
B6
330
1F
100
AcDbEntity
  8
0
  6
Continuous
 62
     7
370
    25
100
AcDbLine
 10
-1.575
 20
-1.79
 30
0.0
 11
1.575
 21
-1.79
 31
0.0
  0
LINE
  5
B7
330
1F
100
AcDbEntity
  8
0
  6
Continuous
 62
     7
370
    25
100
AcDbLine
 10
-1.94
 20
-0.1390064387
 30
0.0
 11
-1.94
 21
-1.425
 31
0.0
  0
LINE
  5
B8
330
1F
100
AcDbEntity
  8
0
  6
Continuous
 62
     7
370
    25
100
AcDbLine
 10
-1.565
 20
1.79
 30
0.0
 11
-1.565
 21
0.6995190528
 31
0.0
  0
LINE
  5
B9
330
1F
100
AcDbEntity
  8
0
  6
Continuous
 62
     7
370
    25
100
AcDbLine
 10
1.565
 20
1.79
 30
0.0
 11
-1.565
 21
1.79
 31
0.0
  0
LINE
  5
BA
330
1F
100
AcDbEntity
  8
0
  6
Continuous
 62
     7
370
    25
100
AcDbLine
 10
1.565
 20
0.6995190528
 30
0.0
 11
1.565
 21
1.79
 31
0.0
  0
LINE
  5
BB
330
1F
100
AcDbEntity
  8
0
  6
Continuous
 62
     7
370
    25
100
AcDbLine
 10
-1.575
 20
-1.79
 30
0.0
 11
-1.575
 21
-1.8
 31
0.0
  0
LINE
  5
BC
330
1F
100
AcDbEntity
  8
0
  6
Continuous
 62
     7
370
    25
100
AcDbLine
 10
-1.94
 20
-1.425
 30
0.0
 11
-1.95
 21
-1.425
 31
0.0
  0
LINE
  5
BD
330
1F
100
AcDbEntity
  8
0
  6
Continuous
 62
     7
370
    25
100
AcDbLine
 10
1.575
 20
1.8
 30
0.0
 11
1.575
 21
0.6995190528
 31
0.0
  0
LINE
  5
BE
330
1F
100
AcDbEntity
  8
0
  6
Continuous
 62
     7
370
    25
100
AcDbLine
 10
1.575
 20
0.6995190528
 30
0.0
 11
1.565
 21
0.6995190528
 31
0.0
  0
LINE
  5
BF
330
1F
100
AcDbEntity
  8
0
  6
Continuous
 62
     7
370
    25
100
AcDbLine
 10
1.575
 20
1.8
 30
0.0
 11
1.565
 21
1.79
 31
0.0
  0
LINE
  5
C0
330
1F
100
AcDbEntity
  8
0
  6
Continuous
 62
     7
370
    25
100
AcDbLine
 10
1.575
 20
-1.8
 30
0.0
 11
-1.575
 21
-1.8
 31
0.0
  0
LINE
  5
C1
330
1F
100
AcDbEntity
  8
0
  6
Continuous
 62
     7
370
    25
100
AcDbLine
 10
-1.95
 20
-1.425
 30
0.0
 11
-1.95
 21
-0.1390064387
 31
0.0
  0
LINE
  5
C2
330
1F
100
AcDbEntity
  8
0
  6
Continuous
 62
     7
370
    25
100
AcDbLine
 10
-1.94
 20
-0.1390064387
 30
0.0
 11
-1.95
 21
-0.1390064387
 31
0.0
  0
LINE
  5
C3
330
1F
100
AcDbEntity
  8
0
  6
Continuous
 62
     7
370
    25
100
AcDbLine
 10
-1.575
 20
1.8
 30
0.0
 11
1.575
 21
1.8
 31
0.0
  0
LINE
  5
C4
330
1F
100
AcDbEntity
  8
0
  6
Continuous
 62
     7
370
    25
100
AcDbLine
 10
-1.575
 20
1.8
 30
0.0
 11
-1.565
 21
1.79
 31
0.0
  0
LINE
  5
C5
330
1F
100
AcDbEntity
  8
0
  6
Continuous
 62
     7
370
    25
100
AcDbLine
 10
-1.8183333333
 20
0.1330484985
 30
0.0
 11
-1.825
 21
0.1405020585
 31
0.0
  0
LINE
  5
C6
330
1F
100
AcDbEntity
  8
0
  6
Continuous
 62
     7
370
    25
100
AcDbLine
 10
-1.575
 20
0.6995190528
 30
0.0
 11
-1.565
 21
0.6995190528
 31
0.0
  0
LINE
  5
C7
330
1F
100
AcDbEntity
  8
0
  6
Continuous
 62
     7
370
    25
100
AcDbLine
 10
-1.575
 20
0.6995190528
 30
0.0
 11
-1.575
 21
1.8
 31
0.0
  0
ARC
  5
C8
330
1F
100
AcDbEntity
  8
0
  6
Continuous
 62
     7
370
    25
100
AcDbCircle
 10
1.575
 20
-1.425
 30
0.0
 40
0.3649999999999993
100
AcDbArc
 50
270.0
 51
0.0
  0
ARC
  5
C9
330
1F
100
AcDbEntity
  8
0
  6
Continuous
 62
     7
370
    25
100
AcDbCircle
 10
1.575
 20
-1.425
 30
0.0
 40
0.375000000000002
100
AcDbArc
 50
270.0
 51
0.0
  0
ARC
  5
CA
330
1F
100
AcDbEntity
  8
0
  6
Continuous
 62
     7
370
    25
100
AcDbCircle
 10
1.575
 20
-0.1390064387
 30
0.0
 40
0.374999999999998
100
AcDbArc
 50
0.0
 51
48.1896851042
  0
ARC
  5
CB
330
1F
100
AcDbEntity
  8
0
  6
Continuous
 62
     7
370
    25
100
AcDbCircle
 10
1.575
 20
-0.1390064387
 30
0.0
 40
0.365000000000002
100
AcDbArc
 50
0.0
 51
48.1896851042
  0
ARC
  5
CC
330
1F
100
AcDbEntity
  8
0
  6
Continuous
 62
     7
370
    25
100
AcDbCircle
 10
0.0
 20
-0.1
 30
0.0
 40
1.40929984295206
100
AcDbArc
 50
330.6853889595
 51
323.6658953834
  0
ARC
  5
CD
330
1F
100
AcDbEntity
  8
0
  6
Continuous
 62
     7
370
    25
100
AcDbCircle
 10
0.0
 20
-0.1
 30
0.0
 40
1.399902916744199
100
AcDbArc
 50
330.0262037535
 51
323.8602070932
  0
ARC
  5
CE
330
1F
100
AcDbEntity
  8
0
  6
Continuous
 62
     7
370
    25
100
AcDbCircle
 10
-1.575
 20
-1.425
 30
0.0
 40
0.3650000000000004
100
AcDbArc
 50
180.0
 51
270.0
  0
ARC
  5
CF
330
1F
100
AcDbEntity
  8
0
  6
Continuous
 62
     7
370
    25
100
AcDbCircle
 10
-1.575
 20
-0.1390064387
 30
0.0
 40
0.365
100
AcDbArc
 50
131.8103148958
 51
180.0
  0
ARC
  5
D0
330
1F
100
AcDbEntity
  8
0
  6
Continuous
 62
     7
370
    25
100
AcDbCircle
 10
-2.325
 20
0.6995190528
 30
0.0
 40
0.7600000000000056
100
AcDbArc
 50
311.8103148958
 51
0.0
  0
ARC
  5
D1
330
1F
100
AcDbEntity
  8
0
  6
Continuous
 62
     7
370
    25
100
AcDbCircle
 10
2.325
 20
0.6995190528
 30
0.0
 40
0.7599999999999982
100
AcDbArc
 50
180.0
 51
228.1896851042
  0
ARC
  5
D2
330
1F
100
AcDbEntity
  8
0
  6
Continuous
 62
     7
370
    25
100
AcDbCircle
 10
-1.575
 20
-1.425
 30
0.0
 40
0.3750000000000002
100
AcDbArc
 50
180.0
 51
270.0
  0
ARC
  5
D3
330
1F
100
AcDbEntity
  8
0
  6
Continuous
 62
     7
370
    25
100
AcDbCircle
 10
2.325
 20
0.6995190528
 30
0.0
 40
0.7500000000000031
100
AcDbArc
 50
180.0
 51
228.1896851042
  0
ARC
  5
D4
330
1F
100
AcDbEntity
  8
0
  6
Continuous
 62
     7
370
    25
100
AcDbCircle
 10
-2.325
 20
0.6995190528
 30
0.0
 40
0.7499999999999974
100
AcDbArc
 50
311.8103148958
 51
0.0
  0
ARC
  5
D5
330
1F
100
AcDbEntity
  8
0
  6
Continuous
 62
     7
370
    25
100
AcDbCircle
 10
-1.575
 20
-0.1390064387
 30
0.0
 40
0.3750000000000016
100
AcDbArc
 50
131.8103148958
 51
180.0
  0
ARC
  5
D6
330
1F
100
AcDbEntity
  8
0
  6
Continuous
 62
     7
370
    25
100
AcDbCircle
 10
0.0
 20
-0.1
 30
0.0
 40
1.374999999999996
100
AcDbArc
 50
329.3967053918
 51
323.1301023542
  0
CIRCLE
  5
216
330
20B
100
AcDbEntity
 67
     1
  8
0
  6
Continuous
 62
     7
370
    25
100
AcDbCircle
 10
1.25
 20
0.5
 30
0.0
 40
0.0979999999999988
  0
CIRCLE
  5
217
330
20B
100
AcDbEntity
 67
     1
  8
0
  6
Continuous
 62
     7
370
    25
100
AcDbCircle
 10
-1.25
 20
0.5
 30
0.0
 40
0.0979999999999992
  0
CIRCLE
  5
218
330
20B
100
AcDbEntity
 67
     1
  8
0
  6
Continuous
 62
     7
370
    25
100
AcDbCircle
 10
-1.25
 20
-0.5
 30
0.0
 40
0.097999999999999
  0
CIRCLE
  5
219
330
20B
100
AcDbEntity
 67
     1
  8
0
  6
Continuous
 62
     7
370
    25
100
AcDbCircle
 10
1.25
 20
-0.5
 30
0.0
 40
0.0979999999999988
  0
LINE
  5
239
330
20B
100
AcDbEntity
 67
     1
  8
0
  6
Continuous
 62
     7
370
    25
100
AcDbLine
 10
1.94
 20
-0.95
 30
0.0
 11
-1.94
 21
-0.95
 31
0.0
  0
LINE
  5
23A
330
20B
100
AcDbEntity
 67
     1
  8
0
  6
Continuous
 62
     7
370
    25
100
AcDbLine
 10
-1.95
 20
-0.94
 30
0.0
 11
1.95
 21
-0.94
 31
0.0
  0
LINE
  5
23B
330
20B
100
AcDbEntity
 67
     1
  8
0
  6
Continuous
 62
     7
370
    25
100
AcDbLine
 10
1.95
 20
0.94
 30
0.0
 11
-1.95
 21
0.94
 31
0.0
  0
LINE
  5
23C
330
20B
100
AcDbEntity
 67
     1
  8
0
  6
Continuous
 62
     7
370
    25
100
AcDbLine
 10
1.575
 20
-0.94
 30
0.0
 11
1.575
 21
0.94
 31
0.0
  0
LINE
  5
23D
330
20B
100
AcDbEntity
 67
     1
  8
0
  6
Continuous
 62
     7
370
    25
100
AcDbLine
 10
-1.575
 20
-0.94
 30
0.0
 11
-1.575
 21
0.94
 31
0.0
  0
LINE
  5
23E
330
20B
100
AcDbEntity
 67
     1
  8
0
  6
Continuous
 62
     7
370
    25
100
AcDbLine
 10
-1.94
 20
0.95
 30
0.0
 11
1.94
 21
0.95
 31
0.0
  0
LINE
  5
23F
330
20B
100
AcDbEntity
 67
     1
  8
0
  6
Continuous
 62
     7
370
    25
100
AcDbLine
 10
-1.825
 20
0.94
 30
0.0
 11
-1.825
 21
-0.94
 31
0.0
  0
LINE
  5
240
330
20B
100
AcDbEntity
 67
     1
  8
0
  6
Continuous
 62
     7
370
    25
100
AcDbLine
 10
1.825
 20
-0.94
 30
0.0
 11
1.825
 21
0.94
 31
0.0
  0
LINE
  5
241
330
20B
100
AcDbEntity
 67
     1
  8
0
  6
Continuous
 62
     7
370
    25
100
AcDbLine
 10
1.95
 20
0.94
 30
0.0
 11
1.95
 21
-0.94
 31
0.0
  0
LINE
  5
242
330
20B
100
AcDbEntity
 67
     1
  8
0
  6
Continuous
 62
     7
370
    25
100
AcDbLine
 10
-1.95
 20
-0.94
 30
0.0
 11
-1.95
 21
0.94
 31
0.0
  0
ARC
  5
243
330
20B
100
AcDbEntity
 67
     1
  8
0
  6
Continuous
 62
     7
370
    25
100
AcDbCircle
 10
-1.565
 20
-0.94
 30
0.0
 40
0.0099999999999999
100
AcDbArc
 50
180.0
 51
270.0
  0
ARC
  5
244
330
20B
100
AcDbEntity
 67
     1
  8
0
  6
Continuous
 62
     7
370
    25
100
AcDbCircle
 10
1.565
 20
-0.94
 30
0.0
 40
0.0099999999999997
100
AcDbArc
 50
270.0
 51
0.0
  0
ARC
  5
245
330
20B
100
AcDbEntity
 67
     1
  8
0
  6
Continuous
 62
     7
370
    25
100
AcDbCircle
 10
-1.565
 20
0.94
 30
0.0
 40
0.0099999999999998
100
AcDbArc
 50
90.0
 51
180.0
  0
ARC
  5
246
330
20B
100
AcDbEntity
 67
     1
  8
0
  6
Continuous
 62
     7
370
    25
100
AcDbCircle
 10
1.565
 20
0.94
 30
0.0
 40
0.0099999999999998
100
AcDbArc
 50
360.0
 51
90.0
  0
ARC
  5
247
330
20B
100
AcDbEntity
 67
     1
  8
0
  6
Continuous
 62
     7
370
    25
100
AcDbCircle
 10
1.81625
 20
0.9413888889
 30
0.0
 40
0.0088595435743429
100
AcDbArc
 50
350.9806775686
 51
76.3994574833
  0
ARC
  5
248
330
20B
100
AcDbEntity
 67
     1
  8
0
  6
Continuous
 62
     7
370
    25
100
AcDbCircle
 10
-1.81625
 20
0.9413888889
 30
0.0
 40
0.0088595435743431
100
AcDbArc
 50
103.6005425167
 51
189.0193224314
  0
ARC
  5
249
330
20B
100
AcDbEntity
 67
     1
  8
0
  6
Continuous
 62
     7
370
    25
100
AcDbCircle
 10
-1.81625
 20
-0.9413888889
 30
0.0
 40
0.0088595435743425
100
AcDbArc
 50
170.9806775686
 51
256.3994574833
  0
ARC
  5
24A
330
20B
100
AcDbEntity
 67
     1
  8
0
  6
Continuous
 62
     7
370
    25
100
AcDbCircle
 10
1.81625
 20
-0.9413888889
 30
0.0
 40
0.0088595435743425
100
AcDbArc
 50
283.6005425167
 51
9.0193224314
  0
ARC
  5
24B
330
20B
100
AcDbEntity
 67
     1
  8
0
  6
Continuous
 62
     7
370
    25
100
AcDbCircle
 10
1.94
 20
-0.94
 30
0.0
 40
0.01
100
AcDbArc
 50
270.0
 51
0.0
  0
ARC
  5
24C
330
20B
100
AcDbEntity
 67
     1
  8
0
  6
Continuous
 62
     7
370
    25
100
AcDbCircle
 10
1.94
 20
0.94
 30
0.0
 40
0.0099999999999992
100
AcDbArc
 50
360.0
 51
90.0
  0
ARC
  5
24D
330
20B
100
AcDbEntity
 67
     1
  8
0
  6
Continuous
 62
     7
370
    25
100
AcDbCircle
 10
-1.94
 20
-0.94
 30
0.0
 40
0.0100000000000001
100
AcDbArc
 50
180.0
 51
270.0
  0
ARC
  5
24E
330
20B
100
AcDbEntity
 67
     1
  8
0
  6
Continuous
 62
     7
370
    25
100
AcDbCircle
 10
-1.94
 20
0.94
 30
0.0
 40
0.0100000000000005
100
AcDbArc
 50
90.0
 51
180.0
  0
VIEWPORT
  5
253
330
20B
100
AcDbEntity
 67
     1
  8
0
100
AcDbViewport
 10
0.0
 20
0.0
 30
0.0
 40
8.4
 41
6.4
 68
     1
 69
     1
 12
0.0
 22
0.0
 13
0.0
 23
0.0
 14
0.5
 24
0.5
 15
0.5
 25
0.5
 16
0.0
 26
0.0
 36
1.0
 17
0.0
 27
0.0
 37
0.0
 42
50.0
 43
0.0
 44
0.0
 45
3.672
 50
0.0
 51
0.0
 72
   100
 90
   557152
  1

281
     0
 71
     1
 74
     0
110
0.0
120
0.0
130
0.0
111
1.0
121
0.0
131
0.0
112
0.0
122
1.0
132
0.0
 79
     0
146
0.0
  0
ENDSEC
  0
SECTION
  2
OBJECTS
  0
DICTIONARY
  5
C
330
0
100
AcDbDictionary
281
     1
  3
ACAD_GROUP
350
D
  3
ACAD_LAYOUT
350
1A
  3
ACAD_MLINESTYLE
350
17
  3
ACAD_PLOTSETTINGS
350
19
  3
ACAD_PLOTSTYLENAME
350
E
  3
ACAD_SCALELIST
350
47
  0
DICTIONARY
  5
D
102
{ACAD_REACTORS
330
C
102
}
330
C
100
AcDbDictionary
281
     1
  0
DICTIONARY
  5
1A
102
{ACAD_REACTORS
330
C
102
}
330
C
100
AcDbDictionary
281
     1
  3
_Back
350
20C
  3
_Front
350
1E
  3
_Right
350
26
  3
Model
350
22
  0
DICTIONARY
  5
17
102
{ACAD_REACTORS
330
C
102
}
330
C
100
AcDbDictionary
281
     1
  3
Standard
350
18
  0
DICTIONARY
  5
19
102
{ACAD_REACTORS
330
C
102
}
330
C
100
AcDbDictionary
281
     1
  0
ACDBDICTIONARYWDFLT
  5
E
102
{ACAD_REACTORS
330
C
102
}
330
C
100
AcDbDictionary
281
     1
  3
Normal
350
F
100
AcDbDictionaryWithDefault
340
F
  0
DICTIONARY
  5
47
102
{ACAD_REACTORS
330
C
102
}
330
C
100
AcDbDictionary
281
     1
  3
A0
350
48
  3
A1
350
49
  3
A2
350
4A
  3
A3
350
4B
  3
A4
350
4C
  3
A5
350
4D
  3
A6
350
4E
  3
A7
350
4F
  3
A8
350
50
  3
A9
350
51
  3
B0
350
52
  3
B1
350
53
  3
B2
350
54
  3
B3
350
55
  3
B4
350
56
  3
B5
350
57
  3
B6
350
58
  3
B7
350
59
  3
B8
350
5A
  3
B9
350
5B
  3
C0
350
5C
  3
C1
350
5D
  3
C2
350
5E
  3
C3
350
5F
  3
C4
350
60
  3
C5
350
61
  3
C6
350
62
  3
C7
350
63
  3
C8
350
64
  3
C9
350
65
  3
D0
350
66
  3
D1
350
67
  3
D2
350
68
  0
LAYOUT
  5
20C
102
{ACAD_REACTORS
330
1A
102
}
330
1A
100
AcDbPlotSettings
  1

  2
none_device
  4
ANSI_A_(11.00_x_8.50_Inches)
  6

 40
6.35
 41
19.05
 42
6.35000508
 43
19.05000254
 44
279.4
 45
215.9
 46
133.34999746
 47
88.89999873
 48
0.0
 49
0.0
140
0.0
141
0.0
142
2.3375
143
1.0
 70
  1696
 72
     0
 73
     0
 74
     1
  7

 75
     0
147
1.9444444167
148
49.53
149
45.72
100
AcDbLayout
  1
_Back
 70
     1
 71
     3
 10
0.0
 20
0.0
 11
0.0
 21
0.0
 12
0.0
 22
0.0
 32
0.0
 14
-1.95
 24
-1.8
 34
0.0
 15
1.95
 25
1.8
 35
0.0
146
0.0
 13
0.0
 23
0.0
 33
0.0
 16
1.0
 26
0.0
 36
0.0
 17
0.0
 27
1.0
 37
0.0
 76
     0
330
20B
331
253
  0
LAYOUT
  5
1E
102
{ACAD_REACTORS
330
1A
102
}
330
1A
100
AcDbPlotSettings
  1

  2
none_device
  4
Letter_(8.50_x_11.00_Inches)
  6

 40
6.35
 41
6.35
 42
6.35001
 43
6.35001
 44
215.9
 45
279.4
 46
0.0
 47
0.0
 48
0.0
 49
0.0
140
0.0
141
0.0
142
1.0
143
0.3714285854
 70
   688
 72
     0
 73
     1
 74
     1
  7

 75
     0
147
2.6923075914
148
49.53
149
24.13
100
AcDbLayout
  1
_Front
 70
     1
 71
     1
 10
-2.0428572926
 20
-1.0428571463
 11
2.0428571463
 21
2.1142858292
 12
0.0
 22
0.0
 32
0.0
 14
1.0000000000E+20
 24
1.0000000000E+20
 34
1.0000000000E+20
 15
-1.0000000000E+20
 25
-1.0000000000E+20
 35
-1.0000000000E+20
146
0.0
 13
0.0
 23
0.0
 33
0.0
 16
1.0
 26
0.0
 36
0.0
 17
0.0
 27
1.0
 37
0.0
 76
     0
330
1B
331
24F
  0
LAYOUT
  5
26
102
{ACAD_REACTORS
330
1A
102
}
330
1A
100
AcDbPlotSettings
  1

  2
none_device
  4
Letter_(8.50_x_11.00_Inches)
  6

 40
6.35
 41
6.35
 42
6.35001
 43
6.35001
 44
215.9
 45
279.4
 46
0.0
 47
0.0
 48
0.0
 49
0.0
140
0.0
141
0.0
142
1.0
143
0.3714285854
 70
   688
 72
     0
 73
     1
 74
     1
  7

 75
     0
147
2.6923075914
148
49.53
149
24.13
100
AcDbLayout
  1
_Right
 70
     1
 71
     2
 10
0.0
 20
0.0
 11
0.0
 21
0.0
 12
0.0
 22
0.0
 32
0.0
 14
0.0
 24
0.0
 34
0.0
 15
0.0
 25
0.0
 35
0.0
146
0.0
 13
0.0
 23
0.0
 33
0.0
 16
1.0
 26
0.0
 36
0.0
 17
0.0
 27
1.0
 37
0.0
 76
     0
330
23
331
251
  0
LAYOUT
  5
22
102
{ACAD_REACTORS
330
1A
102
}
330
1A
100
AcDbPlotSettings
  1

  2
none_device
  4
Letter_(8.50_x_11.00_Inches)
  6

 40
6.35
 41
6.35
 42
6.35000508
 43
6.35000508
 44
215.9
 45
279.4
 46
0.0
 47
0.0
 48
0.0
 49
0.0
140
0.0
141
0.0
142
1.0
143
1.0
 70
  1712
 72
     0
 73
     0
 74
     0
  7

 75
     0
147
1.0
148
0.0
149
0.0
100
AcDbLayout
  1
Model
 70
     1
 71
     0
 10
0.0
 20
0.0
 11
12.0
 21
9.0
 12
0.0
 22
0.0
 32
0.0
 14
-1.95
 24
-1.8
 34
0.0
 15
1.95
 25
1.8
 35
0.0
146
0.0
 13
0.0
 23
0.0
 33
0.0
 16
1.0
 26
0.0
 36
0.0
 17
0.0
 27
1.0
 37
0.0
 76
     0
330
1F
331
29
  0
MLINESTYLE
  5
18
102
{ACAD_REACTORS
330
17
102
}
330
17
100
AcDbMlineStyle
  2
Standard
 70
     0
  3

 62
   256
 51
90.0
 52
90.0
 71
     2
 49
0.5
 62
   256
  6
BYLAYER
 49
-0.5
 62
   256
  6
BYLAYER
  0
ACDBPLACEHOLDER
  5
F
102
{ACAD_REACTORS
330
E
102
}
330
E
  0
SCALE
  5
48
102
{ACAD_REACTORS
330
47
102
}
330
47
100
AcDbScale
 70
     0
300
1:1
140
1.0
141
1.0
290
     1
  0
SCALE
  5
49
102
{ACAD_REACTORS
330
47
102
}
330
47
100
AcDbScale
 70
     0
300
1:2
140
1.0
141
2.0
290
     0
  0
SCALE
  5
4A
102
{ACAD_REACTORS
330
47
102
}
330
47
100
AcDbScale
 70
     0
300
1:4
140
1.0
141
4.0
290
     0
  0
SCALE
  5
4B
102
{ACAD_REACTORS
330
47
102
}
330
47
100
AcDbScale
 70
     0
300
1:5
140
1.0
141
5.0
290
     0
  0
SCALE
  5
4C
102
{ACAD_REACTORS
330
47
102
}
330
47
100
AcDbScale
 70
     0
300
1:8
140
1.0
141
8.0
290
     0
  0
SCALE
  5
4D
102
{ACAD_REACTORS
330
47
102
}
330
47
100
AcDbScale
 70
     0
300
1:10
140
1.0
141
10.0
290
     0
  0
SCALE
  5
4E
102
{ACAD_REACTORS
330
47
102
}
330
47
100
AcDbScale
 70
     0
300
1:16
140
1.0
141
16.0
290
     0
  0
SCALE
  5
4F
102
{ACAD_REACTORS
330
47
102
}
330
47
100
AcDbScale
 70
     0
300
1:20
140
1.0
141
20.0
290
     0
  0
SCALE
  5
50
102
{ACAD_REACTORS
330
47
102
}
330
47
100
AcDbScale
 70
     0
300
1:30
140
1.0
141
30.0
290
     0
  0
SCALE
  5
51
102
{ACAD_REACTORS
330
47
102
}
330
47
100
AcDbScale
 70
     0
300
1:40
140
1.0
141
40.0
290
     0
  0
SCALE
  5
52
102
{ACAD_REACTORS
330
47
102
}
330
47
100
AcDbScale
 70
     0
300
1:50
140
1.0
141
50.0
290
     0
  0
SCALE
  5
53
102
{ACAD_REACTORS
330
47
102
}
330
47
100
AcDbScale
 70
     0
300
1:100
140
1.0
141
100.0
290
     0
  0
SCALE
  5
54
102
{ACAD_REACTORS
330
47
102
}
330
47
100
AcDbScale
 70
     0
300
2:1
140
2.0
141
1.0
290
     0
  0
SCALE
  5
55
102
{ACAD_REACTORS
330
47
102
}
330
47
100
AcDbScale
 70
     0
300
4:1
140
4.0
141
1.0
290
     0
  0
SCALE
  5
56
102
{ACAD_REACTORS
330
47
102
}
330
47
100
AcDbScale
 70
     0
300
8:1
140
8.0
141
1.0
290
     0
  0
SCALE
  5
57
102
{ACAD_REACTORS
330
47
102
}
330
47
100
AcDbScale
 70
     0
300
10:1
140
10.0
141
1.0
290
     0
  0
SCALE
  5
58
102
{ACAD_REACTORS
330
47
102
}
330
47
100
AcDbScale
 70
     0
300
100:1
140
100.0
141
1.0
290
     0
  0
SCALE
  5
59
102
{ACAD_REACTORS
330
47
102
}
330
47
100
AcDbScale
 70
     0
300
1/128" = 1'-0"
140
0.0078125
141
12.0
290
     0
  0
SCALE
  5
5A
102
{ACAD_REACTORS
330
47
102
}
330
47
100
AcDbScale
 70
     0
300
1/64" = 1'-0"
140
0.015625
141
12.0
290
     0
  0
SCALE
  5
5B
102
{ACAD_REACTORS
330
47
102
}
330
47
100
AcDbScale
 70
     0
300
1/32" = 1'-0"
140
0.03125
141
12.0
290
     0
  0
SCALE
  5
5C
102
{ACAD_REACTORS
330
47
102
}
330
47
100
AcDbScale
 70
     0
300
1/16" = 1'-0"
140
0.0625
141
12.0
290
     0
  0
SCALE
  5
5D
102
{ACAD_REACTORS
330
47
102
}
330
47
100
AcDbScale
 70
     0
300
3/32" = 1'-0"
140
0.09375
141
12.0
290
     0
  0
SCALE
  5
5E
102
{ACAD_REACTORS
330
47
102
}
330
47
100
AcDbScale
 70
     0
300
1/8" = 1'-0"
140
0.125
141
12.0
290
     0
  0
SCALE
  5
5F
102
{ACAD_REACTORS
330
47
102
}
330
47
100
AcDbScale
 70
     0
300
3/16" = 1'-0"
140
0.1875
141
12.0
290
     0
  0
SCALE
  5
60
102
{ACAD_REACTORS
330
47
102
}
330
47
100
AcDbScale
 70
     0
300
1/4" = 1'-0"
140
0.25
141
12.0
290
     0
  0
SCALE
  5
61
102
{ACAD_REACTORS
330
47
102
}
330
47
100
AcDbScale
 70
     0
300
3/8" = 1'-0"
140
0.375
141
12.0
290
     0
  0
SCALE
  5
62
102
{ACAD_REACTORS
330
47
102
}
330
47
100
AcDbScale
 70
     0
300
1/2" = 1'-0"
140
0.5
141
12.0
290
     0
  0
SCALE
  5
63
102
{ACAD_REACTORS
330
47
102
}
330
47
100
AcDbScale
 70
     0
300
3/4" = 1'-0"
140
0.75
141
12.0
290
     0
  0
SCALE
  5
64
102
{ACAD_REACTORS
330
47
102
}
330
47
100
AcDbScale
 70
     0
300
1" = 1'-0"
140
1.0
141
12.0
290
     0
  0
SCALE
  5
65
102
{ACAD_REACTORS
330
47
102
}
330
47
100
AcDbScale
 70
     0
300
1-1/2" = 1'-0"
140
1.5
141
12.0
290
     0
  0
SCALE
  5
66
102
{ACAD_REACTORS
330
47
102
}
330
47
100
AcDbScale
 70
     0
300
3" = 1'-0"
140
3.0
141
12.0
290
     0
  0
SCALE
  5
67
102
{ACAD_REACTORS
330
47
102
}
330
47
100
AcDbScale
 70
     0
300
6" = 1'-0"
140
6.0
141
12.0
290
     0
  0
SCALE
  5
68
102
{ACAD_REACTORS
330
47
102
}
330
47
100
AcDbScale
 70
     0
300
1'-0" = 1'-0"
140
12.0
141
12.0
290
     0
  0
ENDSEC
  0
EOF
