   0
SECTION
  2
HEADER
  9
$ACADVER
  1
AC1015
  9
$ACADMAINTVER
 70
     6
  9
$DWGCODEPAGE
  3
ANSI_1252
  9
$INSBASE
 10
0.0
 20
0.0
 30
0.0
  9
$EXTMIN
 10
-2.45
 20
-2.5
 30
0.0
  9
$EXTMAX
 10
2.45
 20
2.5
 30
0.0
  9
$LIMMIN
 10
0.0
 20
0.0
  9
$LIMMAX
 10
12.0
 20
9.0
  9
$ORTHOMODE
 70
     0
  9
$REGENMODE
 70
     1
  9
$FILLMODE
 70
     1
  9
$QTEXTMODE
 70
     0
  9
$MIRRTEXT
 70
     1
  9
$LTSCALE
 40
1.0
  9
$ATTMODE
 70
     1
  9
$TEXTSIZE
 40
0.1377952756
  9
$TRACEWID
 40
0.05
  9
$TEXTSTYLE
  7
Standard
  9
$CLAYER
  8
0
  9
$CELTYPE
  6
ByLayer
  9
$CECOLOR
 62
   256
  9
$CELTSCALE
 40
1.0
  9
$DISPSILH
 70
     0
  9
$DIMSCALE
 40
1.0
  9
$DIMASZ
 40
0.2362204724
  9
$DIMEXO
 40
0.0393700787
  9
$DIMDLI
 40
0.38
  9
$DIMRND
 40
0.0
  9
$DIMDLE
 40
0.0
  9
$DIMEXE
 40
0.0393700787
  9
$DIMTP
 40
0.0
  9
$DIMTM
 40
0.0
  9
$DIMTXT
 40
0.1377952756
  9
$DIMCEN
 40
0.09
  9
$DIMTSZ
 40
0.0
  9
$DIMTOL
 70
     0
  9
$DIMLIM
 70
     0
  9
$DIMTIH
 70
     1
  9
$DIMTOH
 70
     1
  9
$DIMSE1
 70
     0
  9
$DIMSE2
 70
     0
  9
$DIMTAD
 70
     1
  9
$DIMZIN
 70
     0
  9
$DIMBLK
  1

  9
$DIMASO
 70
     1
  9
$DIMSHO
 70
     1
  9
$DIMPOST
  1

  9
$DIMAPOST
  1

  9
$DIMALT
 70
     0
  9
$DIMALTD
 70
     2
  9
$DIMALTF
 40
25.4
  9
$DIMLFAC
 40
1.0
  9
$DIMTOFL
 70
     0
  9
$DIMTVP
 40
0.0
  9
$DIMTIX
 70
     0
  9
$DIMSOXD
 70
     0
  9
$DIMSAH
 70
     0
  9
$DIMBLK1
  1

  9
$DIMBLK2
  1

  9
$DIMSTYLE
  2
Standard
  9
$DIMCLRD
 70
     0
  9
$DIMCLRE
 70
     0
  9
$DIMCLRT
 70
     0
  9
$DIMTFAC
 40
1.0
  9
$DIMGAP
 40
0.06
  9
$DIMJUST
 70
     0
  9
$DIMSD1
 70
     0
  9
$DIMSD2
 70
     0
  9
$DIMTOLJ
 70
     1
  9
$DIMTZIN
 70
     0
  9
$DIMALTZ
 70
     0
  9
$DIMALTTZ
 70
     0
  9
$DIMUPT
 70
     0
  9
$DIMDEC
 70
     3
  9
$DIMTDEC
 70
     3
  9
$DIMALTU
 70
     2
  9
$DIMALTTD
 70
     2
  9
$DIMTXSTY
  7
Standard
  9
$DIMAUNIT
 70
     0
  9
$DIMADEC
 70
     2
  9
$DIMALTRND
 40
0.0
  9
$DIMAZIN
 70
     0
  9
$DIMDSEP
 70
    46
  9
$DIMATFIT
 70
     3
  9
$DIMFRAC
 70
     0
  9
$DIMLDRBLK
  1

  9
$DIMLUNIT
 70
     2
  9
$DIMLWD
 70
    -2
  9
$DIMLWE
 70
    -2
  9
$DIMTMOVE
 70
     0
  9
$LUNITS
 70
     2
  9
$LUPREC
 70
     2
  9
$SKETCHINC
 40
0.1
  9
$FILLETRAD
 40
0.5
  9
$AUNITS
 70
     0
  9
$AUPREC
 70
     2
  9
$MENU
  1
.
  9
$ELEVATION
 40
0.0
  9
$PELEVATION
 40
0.0
  9
$THICKNESS
 40
0.0
  9
$LIMCHECK
 70
     0
  9
$CHAMFERA
 40
0.0
  9
$CHAMFERB
 40
0.0
  9
$CHAMFERC
 40
0.0
  9
$CHAMFERD
 40
0.0
  9
$SKPOLY
 70
     0
  9
$TDCREATE
 40
2458226.557664352
  9
$TDUCREATE
 40
2458226.849331019
  9
$TDUPDATE
 40
2458226.557716875
  9
$TDUUPDATE
 40
2458226.849383542
  9
$TDINDWG
 40
0.0000000116
  9
$TDUSRTIMER
 40
0.0000000116
  9
$USRTIMER
 70
     1
  9
$ANGBASE
 50
0.0
  9
$ANGDIR
 70
     0
  9
$PDMODE
 70
     0
  9
$PDSIZE
 40
-1.0
  9
$PLINEWID
 40
0.0
  9
$SPLFRAME
 70
     0
  9
$SPLINETYPE
 70
     6
  9
$SPLINESEGS
 70
     8
  9
$HANDSEED
  5
272
  9
$SURFTAB1
 70
     6
  9
$SURFTAB2
 70
     6
  9
$SURFTYPE
 70
     6
  9
$SURFU
 70
     6
  9
$SURFV
 70
     6
  9
$UCSBASE
  2

  9
$UCSNAME
  2

  9
$UCSORG
 10
0.0
 20
0.0
 30
0.0
  9
$UCSXDIR
 10
1.0
 20
0.0
 30
0.0
  9
$UCSYDIR
 10
0.0
 20
1.0
 30
0.0
  9
$UCSORTHOREF
  2

  9
$UCSORTHOVIEW
 70
     0
  9
$UCSORGTOP
 10
0.0
 20
0.0
 30
0.0
  9
$UCSORGBOTTOM
 10
0.0
 20
0.0
 30
0.0
  9
$UCSORGLEFT
 10
0.0
 20
0.0
 30
0.0
  9
$UCSORGRIGHT
 10
0.0
 20
0.0
 30
0.0
  9
$UCSORGFRONT
 10
0.0
 20
0.0
 30
0.0
  9
$UCSORGBACK
 10
0.0
 20
0.0
 30
0.0
  9
$PUCSBASE
  2

  9
$PUCSNAME
  2

  9
$PUCSORG
 10
0.0
 20
0.0
 30
0.0
  9
$PUCSXDIR
 10
1.0
 20
0.0
 30
0.0
  9
$PUCSYDIR
 10
0.0
 20
1.0
 30
0.0
  9
$PUCSORTHOREF
  2

  9
$PUCSORTHOVIEW
 70
     0
  9
$PUCSORGTOP
 10
0.0
 20
0.0
 30
0.0
  9
$PUCSORGBOTTOM
 10
0.0
 20
0.0
 30
0.0
  9
$PUCSORGLEFT
 10
0.0
 20
0.0
 30
0.0
  9
$PUCSORGRIGHT
 10
0.0
 20
0.0
 30
0.0
  9
$PUCSORGFRONT
 10
0.0
 20
0.0
 30
0.0
  9
$PUCSORGBACK
 10
0.0
 20
0.0
 30
0.0
  9
$USERI1
 70
     0
  9
$USERI2
 70
     0
  9
$USERI3
 70
     0
  9
$USERI4
 70
     0
  9
$USERI5
 70
     0
  9
$USERR1
 40
0.0
  9
$USERR2
 40
0.0
  9
$USERR3
 40
0.0
  9
$USERR4
 40
0.0
  9
$USERR5
 40
0.0
  9
$WORLDVIEW
 70
     1
  9
$SHADEDGE
 70
     3
  9
$SHADEDIF
 70
    70
  9
$TILEMODE
 70
     0
  9
$MAXACTVP
 70
    64
  9
$PINSBASE
 10
0.0
 20
0.0
 30
0.0
  9
$PLIMCHECK
 70
     0
  9
$PEXTMIN
 10
-2.45
 20
-2.5
 30
0.0
  9
$PEXTMAX
 10
2.45
 20
2.5
 30
0.0
  9
$PLIMMIN
 10
0.0
 20
0.0
  9
$PLIMMAX
 10
0.0
 20
0.0
  9
$UNITMODE
 70
     0
  9
$VISRETAIN
 70
     1
  9
$PLINEGEN
 70
     0
  9
$PSLTSCALE
 70
     1
  9
$TREEDEPTH
 70
  3020
  9
$CMLSTYLE
  2
Standard
  9
$CMLJUST
 70
     0
  9
$CMLSCALE
 40
1.0
  9
$PROXYGRAPHICS
 70
     1
  9
$MEASUREMENT
 70
     0
  9
$CELWEIGHT
370
    -1
  9
$ENDCAPS
280
     0
  9
$JOINSTYLE
280
     0
  9
$LWDISPLAY
290
     1
  9
$INSUNITS
 70
     1
  9
$HYPERLINKBASE
  1

  9
$STYLESHEET
  1

  9
$XEDIT
290
     1
  9
$CEPSNTYPE
380
     0
  9
$PSTYLEMODE
290
     1
  9
$FINGERPRINTGUID
  2
{54646048-AAE9-415E-A9D0-5198ACF6980D}
  9
$VERSIONGUID
  2
{FAEB1C32-E019-11D5-929B-00C0DF256EC4}
  9
$EXTNAMES
290
     1
  9
$PSVPSCALE
 40
0.0
  9
$OLESTARTUP
290
     0
  0
ENDSEC
  0
SECTION
  2
CLASSES
  0
CLASS
  1
ACDBDICTIONARYWDFLT
  2
AcDbDictionaryWithDefault
  3
ObjectDBX Classes
 90
        0
280
     0
281
     0
  0
CLASS
  1
VISUALSTYLE
  2
AcDbVisualStyle
  3
ObjectDBX Classes
 90
     4095
280
     0
281
     0
  0
CLASS
  1
MATERIAL
  2
AcDbMaterial
  3
ObjectDBX Classes
 90
     1153
280
     0
281
     0
  0
CLASS
  1
SCALE
  2
AcDbScale
  3
ObjectDBX Classes
 90
     1153
280
     0
281
     0
  0
CLASS
  1
TABLESTYLE
  2
AcDbTableStyle
  3
ObjectDBX Classes
 90
     4095
280
     0
281
     0
  0
CLASS
  1
MLEADERSTYLE
  2
AcDbMLeaderStyle
  3
ACDB_MLEADERSTYLE_CLASS
 90
     4095
280
     0
281
     0
  0
CLASS
  1
SUN
  2
AcDbSun
  3
SCENEOE
 90
     1153
280
     0
281
     0
  0
CLASS
  1
ACDBPLACEHOLDER
  2
AcDbPlaceHolder
  3
ObjectDBX Classes
 90
        0
280
     0
281
     0
  0
CLASS
  1
LAYOUT
  2
AcDbLayout
  3
ObjectDBX Classes
 90
        0
280
     0
281
     0
  0
ENDSEC
  0
SECTION
  2
TABLES
  0
TABLE
  2
VPORT
  5
8
330
0
100
AcDbSymbolTable
 70
     1
  0
VPORT
  5
29
330
8
100
AcDbSymbolTableRecord
100
AcDbViewportTableRecord
  2
*Active
 70
     0
 10
0.0
 20
0.0
 11
1.0
 21
1.0
 12
0.0
 22
0.0
 13
0.0
 23
0.0
 14
0.5
 24
0.5
 15
0.5
 25
0.5
 16
0.0
 26
0.0
 36
1.0
 17
0.0
 27
0.0
 37
0.0
 40
5.1
 41
0.98
 42
50.0
 43
0.0
 44
0.0
 50
0.0
 51
0.0
 71
     0
 72
   100
 73
     1
 74
     3
 75
     0
 76
     0
 77
     0
 78
     0
281
     0
 65
     1
110
0.0
120
0.0
130
0.0
111
1.0
121
0.0
131
0.0
112
0.0
122
1.0
132
0.0
 79
     0
146
0.0
  0
ENDTAB
  0
TABLE
  2
LTYPE
  5
5
330
0
100
AcDbSymbolTable
 70
     6
  0
LTYPE
  5
14
330
5
100
AcDbSymbolTableRecord
100
AcDbLinetypeTableRecord
  2
ByBlock
 70
     0
  3

 72
    65
 73
     0
 40
0.0
  0
LTYPE
  5
15
330
5
100
AcDbSymbolTableRecord
100
AcDbLinetypeTableRecord
  2
ByLayer
 70
     0
  3

 72
    65
 73
     0
 40
0.0
  0
LTYPE
  5
16
330
5
100
AcDbSymbolTableRecord
100
AcDbLinetypeTableRecord
  2
Continuous
 70
     0
  3
Solid line
 72
    65
 73
     0
 40
0.0
  0
LTYPE
  5
6E
330
5
100
AcDbSymbolTableRecord
100
AcDbLinetypeTableRecord
  2
HIDDEN
 70
     0
  3
Hidden __ __ __ __ __ __ __ __ __ __ __ __ __ __
 72
    65
 73
     2
 40
0.075
 49
0.05
 74
     0
 49
-0.025
 74
     0
  0
LTYPE
  5
6F
330
5
100
AcDbSymbolTableRecord
100
AcDbLinetypeTableRecord
  2
PHANTOM
 70
     0
  3
Phantom ______  __  __  ______  __  __  ______
 72
    65
 73
     6
 40
0.5
 49
0.25
 74
     0
 49
-0.05
 74
     0
 49
0.05
 74
     0
 49
-0.05
 74
     0
 49
0.05
 74
     0
 49
-0.05
 74
     0
  0
LTYPE
  5
70
330
5
100
AcDbSymbolTableRecord
100
AcDbLinetypeTableRecord
  2
CENTER
 70
     0
  3
Center ____ _ ____ _ ____ _ ____ _ ____ _ ____
 72
    65
 73
     4
 40
0.4
 49
0.25
 74
     0
 49
-0.05
 74
     0
 49
0.05
 74
     0
 49
-0.05
 74
     0
  0
LTYPE
  5
71
330
5
100
AcDbSymbolTableRecord
100
AcDbLinetypeTableRecord
  2
CENTERX2
 70
     0
  3
Center (2x) ________  __  ________  __  _____
 72
    65
 73
     4
 40
0.8
 49
0.5
 74
     0
 49
-0.1
 74
     0
 49
0.1
 74
     0
 49
-0.1
 74
     0
  0
LTYPE
  5
72
330
5
100
AcDbSymbolTableRecord
100
AcDbLinetypeTableRecord
  2
DOT2
 70
     0
  3
Dot (.5x) ........................................
 72
    65
 73
     2
 40
0.025
 49
0.0
 74
     0
 49
-0.025
 74
     0
  0
ENDTAB
  0
TABLE
  2
LAYER
  5
2
330
0
100
AcDbSymbolTable
 70
     1
  0
LAYER
  5
10
330
2
100
AcDbSymbolTableRecord
100
AcDbLayerTableRecord
  2
0
 70
     0
 62
     7
  6
Continuous
370
    -3
390
F
  0
ENDTAB
  0
TABLE
  2
STYLE
  5
3
330
0
100
AcDbSymbolTable
 70
     1
  0
STYLE
  5
11
330
3
100
AcDbSymbolTableRecord
100
AcDbTextStyleTableRecord
  2
Standard
 70
     0
 40
0.0
 41
1.0
 50
0.0
 71
     0
 42
0.1377952756
  3
txt
  4

  0
ENDTAB
  0
TABLE
  2
VIEW
  5
6
330
0
100
AcDbSymbolTable
 70
     0
  0
ENDTAB
  0
TABLE
  2
UCS
  5
7
330
0
100
AcDbSymbolTable
 70
     0
  0
ENDTAB
  0
TABLE
  2
APPID
  5
9
330
0
100
AcDbSymbolTable
 70
     1
  0
APPID
  5
12
330
9
100
AcDbSymbolTableRecord
100
AcDbRegAppTableRecord
  2
ACAD
 70
     0
  0
ENDTAB
  0
TABLE
  2
DIMSTYLE
  5
A
330
0
100
AcDbSymbolTable
 70
     1
100
AcDbDimStyleTable
  0
DIMSTYLE
105
27
330
A
100
AcDbSymbolTableRecord
100
AcDbDimStyleTableRecord
  2
Standard
 70
     0
178
     0
340
11
  0
ENDTAB
  0
TABLE
  2
BLOCK_RECORD
  5
1
330
0
100
AcDbSymbolTable
 70
     2
  0
BLOCK_RECORD
  5
1F
330
1
100
AcDbSymbolTableRecord
100
AcDbBlockTableRecord
  2
*Model_Space
340
22
  0
BLOCK_RECORD
  5
21C
330
1
100
AcDbSymbolTableRecord
100
AcDbBlockTableRecord
  2
*Paper_Space
340
21D
  0
BLOCK_RECORD
  5
1B
330
1
100
AcDbSymbolTableRecord
100
AcDbBlockTableRecord
  2
*Paper_Space0
340
1E
  0
BLOCK_RECORD
  5
23
330
1
100
AcDbSymbolTableRecord
100
AcDbBlockTableRecord
  2
*Paper_Space1
340
26
  0
ENDTAB
  0
ENDSEC
  0
SECTION
  2
BLOCKS
  0
BLOCK
  5
20
330
1F
100
AcDbEntity
  8
0
100
AcDbBlockBegin
  2
*Model_Space
 70
     0
 10
0.0
 20
0.0
 30
0.0
  3
*Model_Space
  1

  0
ENDBLK
  5
21
330
1F
100
AcDbEntity
  8
0
100
AcDbBlockEnd
  0
BLOCK
  5
21E
330
21C
100
AcDbEntity
 67
     1
  8
0
100
AcDbBlockBegin
  2
*Paper_Space
 70
     0
 10
0.0
 20
0.0
 30
0.0
  3
*Paper_Space
  1

  0
ENDBLK
  5
21F
330
21C
100
AcDbEntity
 67
     1
  8
0
100
AcDbBlockEnd
  0
BLOCK
  5
1C
330
1B
100
AcDbEntity
  8
0
100
AcDbBlockBegin
  2
*Paper_Space0
 70
     0
 10
0.0
 20
0.0
 30
0.0
  3
*Paper_Space0
  1

  0
SPLINE
  5
E3
330
1B
100
AcDbEntity
  8
0
  6
Continuous
 62
     7
370
    25
100
AcDbSpline
210
0.0
220
0.0
230
1.0
 70
     8
 71
     3
 72
    23
 73
    19
 74
     0
 42
0.000000001
 43
0.00000001
 40
0.0
 40
0.0
 40
0.0
 40
0.0
 40
0.0619654006870626
 40
0.1221219056382958
 40
0.1809884968498415
 40
0.2399332164519025
 40
0.2999058311065244
 40
0.359988847476987
 40
0.4217757417416463
 40
0.4865758264211253
 40
0.5515348046197405
 40
0.615017542759981
 40
0.6772586166616575
 40
0.7397299623627148
 40
0.8030501026629524
 40
0.8664951320156992
 40
0.9319734741771483
 40
1.0
 40
1.0
 40
1.0
 40
1.0
 10
0.5037433924569816
 20
0.0591766295374297
 30
0.0
 10
0.503718363232595
 20
0.0601168420732884
 30
0.0
 10
0.5036690354376505
 20
0.0619698204339698
 30
0.0
 10
0.5032336930166346
 20
0.0646865826000571
 30
0.0
 10
0.5025757990759062
 20
0.0673072445613088
 30
0.0
 10
0.5016330723811054
 20
0.0698398673612235
 30
0.0
 10
0.5003887125352261
 20
0.0722589875213093
 30
0.0
 10
0.4988740125384701
 20
0.0745675497340495
 30
0.0
 10
0.4971263722464283
 20
0.0767993987576747
 30
0.0
 10
0.4951046687294651
 20
0.0788920482875202
 30
0.0
 10
0.4928837427528279
 20
0.0808086311805305
 30
0.0
 10
0.4905375124541966
 20
0.0825064298188913
 30
0.0
 10
0.488055224884909
 20
0.0839252924487663
 30
0.0
 10
0.4854473460590891
 20
0.0850884222590193
 30
0.0
 10
0.4827211464760831
 20
0.0860008388415524
 30
0.0
 10
0.4798713533610283
 20
0.0866330663778952
 30
0.0
 10
0.4769058409089614
 20
0.0870300145647706
 30
0.0
 10
0.4748809001337393
 20
0.0870837221202181
 30
0.0
 10
0.4738491049039834
 20
0.0871110884512194
 30
0.0
  0
SPLINE
  5
E4
330
1B
100
AcDbEntity
  8
0
  6
Continuous
 62
     7
370
    25
100
AcDbSpline
210
0.0
220
0.0
230
1.0
 70
     8
 71
     3
 72
    19
 73
    15
 74
     0
 42
0.000000001
 43
0.00000001
 40
0.0
 40
0.0
 40
0.0
 40
0.0
 40
0.1108026438013195
 40
0.2128292023477713
 40
0.3061013098231122
 40
0.390647321116011
 40
0.4669244693608516
 40
0.5344810392840309
 40
0.5935869409656731
 40
0.6445570045087179
 40
0.7362004526293736
 40
0.8250240256188645
 40
0.9119855848297582
 40
1.0
 40
1.0
 40
1.0
 40
1.0
 10
0.4776859525215888
 20
0.0169437025234988
 30
0.0
 10
0.4789870504274099
 20
0.0183019035687196
 30
0.0
 10
0.4814861932273666
 20
0.0209107298129793
 30
0.0
 10
0.4850209403458393
 20
0.0247195077710117
 30
0.0
 10
0.4881957036652253
 20
0.0282529542573156
 30
0.0
 10
0.4910310340893127
 20
0.0315043931724528
 30
0.0
 10
0.493465424064345
 20
0.0345213840305441
 30
0.0
 10
0.4956257481567774
 20
0.0372062148804556
 30
0.0
 10
0.497356676935599
 20
0.0396768625303732
 30
0.0
 10
0.4992352358209402
 20
0.0425406662277169
 30
0.0
 10
0.5010546839074849
 20
0.0460372141479553
 30
0.0
 10
0.5026181624917523
 20
0.0503101940401225
 30
0.0
 10
0.5035715029818555
 20
0.0547089047753976
 30
0.0
 10
0.503685866584447
 20
0.0576814259189909
 30
0.0
 10
0.5037433924569816
 20
0.0591766295374297
 30
0.0
  0
SPLINE
  5
EA
330
1B
100
AcDbEntity
  8
0
  6
Continuous
 62
     7
370
    25
100
AcDbSpline
210
0.0
220
0.0
230
1.0
 70
     8
 71
     3
 72
    19
 73
    15
 74
     0
 42
0.000000001
 43
0.00000001
 40
0.0
 40
0.0
 40
0.0
 40
0.0
 40
0.0987021963061526
 40
0.1956723088106638
 40
0.2924224265079537
 40
0.3913425437998249
 40
0.4444624406718914
 40
0.5042287754493164
 40
0.5703523379946785
 40
0.642545753097747
 40
0.7222875053440183
 40
0.8079211226827114
 40
0.9004695379850144
 40
1.0
 40
1.0
 40
1.0
 40
1.0
 10
0.5161096351381849
 20
0.0602807583482515
 30
0.0
 10
0.5160429712461972
 20
0.0583615522626284
 30
0.0
 10
0.5159108133191433
 20
0.0545568194409542
 30
0.0
 10
0.51478032605271
 20
0.0489656831122461
 30
0.0
 10
0.5130147153796603
 20
0.0435486193686762
 30
0.0
 10
0.5108888351887413
 20
0.0391888830661391
 30
0.0
 10
0.5087442507768642
 20
0.0356757533906653
 30
0.0
 10
0.5068116717377441
 20
0.0327832846930377
 30
0.0
 10
0.5045492776030273
 20
0.0296688961737701
 30
0.0
 10
0.5019241398879609
 20
0.0263430167495986
 30
0.0
 10
0.4989905622442309
 20
0.0227795952890255
 30
0.0
 10
0.4957219731357024
 20
0.0189807844465684
 30
0.0
 10
0.4920950643947021
 20
0.0149858328788498
 30
0.0
 10
0.4895494541287832
 20
0.012257265895077
 30
0.0
 10
0.4882303826649363
 20
0.0108433908437088
 30
0.0
  0
SPLINE
  5
EB
330
1B
100
AcDbEntity
  8
0
  6
Continuous
 62
     7
370
    25
100
AcDbSpline
210
0.0
220
0.0
230
1.0
 70
     8
 71
     3
 72
    23
 73
    19
 74
     0
 42
0.000000001
 43
0.00000001
 40
0.0
 40
0.0
 40
0.0
 40
0.0
 40
0.0694754602496705
 40
0.1365167976178001
 40
0.2007888236092621
 40
0.263829672855826
 40
0.32573502296542
 40
0.3872906922152919
 40
0.4495092187626035
 40
0.5129678195454412
 40
0.5762752154930607
 40
0.6375801002639253
 40
0.6979026059171026
 40
0.7571720884269854
 40
0.8165985284886558
 40
0.8766531708928198
 40
0.9372896424102404
 40
1.0
 40
1.0
 40
1.0
 40
1.0
 10
0.4744839789702058
 20
0.1012439372297375
 30
0.0
 10
0.4759949267689202
 20
0.1012085649287364
 30
0.0
 10
0.4789638852199599
 20
0.1011390596208234
 30
0.0
 10
0.4832970353952705
 20
0.1005421687047908
 30
0.0
 10
0.4874221257284744
 20
0.0996073028923778
 30
0.0
 10
0.491331092914376
 20
0.0982956723288622
 30
0.0
 10
0.4949927489998583
 20
0.0965325058960855
 30
0.0
 10
0.4984346011477462
 20
0.0944144925630875
 30
0.0
 10
0.5016976251946358
 20
0.0919648929027659
 30
0.0
 10
0.5046349001399965
 20
0.089080884499286
 30
0.0
 10
0.5073320686138648
 20
0.0860020504650197
 30
0.0
 10
0.5096589290526159
 20
0.0827151251259588
 30
0.0
 10
0.5116515732838492
 20
0.0793202713576509
 30
0.0
 10
0.5133125055626356
 20
0.0757916020040481
 30
0.0
 10
0.5145351881980346
 20
0.0720958922240209
 30
0.0
 10
0.5154634641047028
 20
0.0682869472322238
 30
0.0
 10
0.5159881654310053
 20
0.0643253404996819
 30
0.0
 10
0.5160686939151728
 20
0.0616439800411093
 30
0.0
 10
0.5161096351381849
 20
0.0602807583482515
 30
0.0
  0
SPLINE
  5
EC
330
1B
100
AcDbEntity
  8
0
  6
Continuous
 62
     7
370
    25
100
AcDbSpline
210
0.0
220
0.0
230
1.0
 70
     8
 71
     3
 72
    23
 73
    19
 74
     0
 42
0.000000001
 43
0.00000001
 40
0.0
 40
0.0
 40
0.0
 40
0.0
 40
0.0687907943906182
 40
0.1351032894311278
 40
0.1989786743106514
 40
0.2619042997808561
 40
0.3234949693679693
 40
0.3851953779660511
 40
0.4469692387407743
 40
0.5097647767031329
 40
0.5722505688473688
 40
0.6334051756611538
 40
0.6932511629217534
 40
0.7525831627856702
 40
0.8125792661534214
 40
0.8732750849201913
 40
0.9355499428950294
 40
1.0
 40
1.0
 40
1.0
 40
1.0
 10
0.4295459363697616
 20
0.0553121786995537
 30
0.0
 10
0.429626532944877
 20
0.0569527648321441
 30
0.0
 10
0.4297848224734604
 20
0.0601748323350931
 30
0.0
 10
0.4305260937042375
 20
0.0648726239256084
 30
0.0
 10
0.4315867581611222
 20
0.0693629703320991
 30
0.0
 10
0.433086421705012
 20
0.0736098173387785
 30
0.0
 10
0.4349488735857116
 20
0.0776507152612323
 30
0.0
 10
0.4371823392306285
 20
0.0814696135167945
 30
0.0
 10
0.4398277664161964
 20
0.0850519437811491
 30
0.0
 10
0.4428280315360951
 20
0.0883644966667974
 30
0.0
 10
0.4460866393729065
 20
0.0914033774069288
 30
0.0
 10
0.4496026212418447
 20
0.0940275995646518
 30
0.0
 10
0.4532973073554789
 20
0.096244830720635
 30
0.0
 10
0.4571594884171087
 20
0.0980984229184243
 30
0.0
 10
0.4612327389509452
 20
0.0994897554350592
 30
0.0
 10
0.4654800955587975
 20
0.1005221034509882
 30
0.0
 10
0.469920219039484
 20
0.1011432194242784
 30
0.0
 10
0.4729454167578672
 20
0.1012099826370461
 30
0.0
 10
0.4744839789702058
 20
0.1012439372297375
 30
0.0
  0
SPLINE
  5
EE
330
1B
100
AcDbEntity
  8
0
  6
Continuous
 62
     7
370
    25
100
AcDbSpline
210
0.0
220
0.0
230
1.0
 70
     8
 71
     3
 72
    23
 73
    19
 74
     0
 42
0.000000001
 43
0.00000001
 40
0.0
 40
0.0
 40
0.0
 40
0.0
 40
0.0644386715952425
 40
0.1265469112716777
 40
0.1868871534365718
 40
0.2458775355894561
 40
0.3040408846912679
 40
0.36219121807266
 40
0.4209759327916456
 40
0.4806602832796669
 40
0.5406002749537578
 40
0.6006890983494533
 40
0.6619357897571962
 40
0.7244425059139832
 40
0.7890383938817438
 40
0.8563137570509947
 40
0.9263520282058637
 40
1.0
 40
1.0
 40
1.0
 40
1.0
 10
0.4738491049039834
 20
0.0871110884512194
 30
0.0
 10
0.4727715130631832
 20
0.0870829375746866
 30
0.0
 10
0.4706553006135943
 20
0.0870276539012865
 30
0.0
 10
0.4675482520727858
 20
0.0866409348464823
 30
0.0
 10
0.464584245083657
 20
0.0859737757757368
 30
0.0
 10
0.4617558237075581
 20
0.085061308280185
 30
0.0
 10
0.459058202218868
 20
0.0839015228934792
 30
0.0
 10
0.4565044996977135
 20
0.0824569660163623
 30
0.0
 10
0.4541004489394491
 20
0.0807332064434276
 30
0.0
 10
0.4518415306975005
 20
0.0787788538322448
 30
0.0
 10
0.4497602716792506
 20
0.076602964020594
 30
0.0
 10
0.4479316545192147
 20
0.0741773749234702
 30
0.0
 10
0.4463338586867879
 20
0.0715463743183091
 30
0.0
 10
0.4449397943765598
 20
0.0687170613037677
 30
0.0
 10
0.4438076805937737
 20
0.0656637628791807
 30
0.0
 10
0.4429425959311319
 20
0.0623973178064071
 30
0.0
 10
0.4422580744066587
 20
0.0589319090883541
 30
0.0
 10
0.4420293924930822
 20
0.0565387955113236
 30
0.0
 10
0.441912179050965
 20
0.0553121786995537
 30
0.0
  0
SPLINE
  5
100
330
1B
100
AcDbEntity
  8
0
  6
Continuous
 62
     7
370
    25
100
AcDbSpline
210
0.0
220
0.0
230
1.0
 70
     8
 71
     3
 72
    15
 73
    11
 74
     0
 42
0.000000001
 43
0.00000001
 40
0.0
 40
0.0
 40
0.0
 40
0.0
 40
0.0751731173762211
 40
0.164746257511801
 40
0.2680168809877798
 40
0.3859118756529554
 40
0.5177894792733981
 40
0.6636909770022813
 40
0.8244132205366415
 40
1.0
 40
1.0
 40
1.0
 40
1.0
 10
-0.1067294270463498
 20
0.0257767330100726
 30
0.0
 10
-0.1075927079121535
 20
0.0255931510778721
 30
0.0
 10
-0.1094846381232012
 20
0.0251908205994719
 30
0.0
 10
-0.1126004933270494
 20
0.0247416687551851
 30
0.0
 10
-0.1162282644266486
 20
0.0243582986494588
 30
0.0
 10
-0.1203629998563954
 20
0.0240708522879999
 30
0.0
 10
-0.1250009882391345
 20
0.0238247747894956
 30
0.0
 10
-0.1301447385277071
 20
0.0236291805418312
 30
0.0
 10
-0.1358043478654752
 20
0.0235217059813918
 30
0.0
 10
-0.1397520346401979
 20
0.0235161629578292
 30
0.0
 10
-0.1418131200102101
 20
0.0235132689478881
 30
0.0
  0
SPLINE
  5
101
330
1B
100
AcDbEntity
  8
0
  6
Continuous
 62
     7
370
    25
100
AcDbSpline
210
0.0
220
0.0
230
1.0
 70
     8
 71
     3
 72
    23
 73
    19
 74
     0
 42
0.000000001
 43
0.00000001
 40
0.0
 40
0.0
 40
0.0
 40
0.0
 40
0.0701188944197149
 40
0.1371923527859712
 40
0.2020161807247511
 40
0.2646314069747434
 40
0.3261165471458178
 40
0.3860103046676407
 40
0.4458118469576801
 40
0.5052976967309599
 40
0.5646332777264886
 40
0.6242826253338405
 40
0.6839020319037509
 40
0.7439527709382697
 40
0.8053877310076346
 40
0.8683880308962793
 40
0.9330840282524765
 40
1.0
 40
1.0
 40
1.0
 40
1.0
 10
-0.0792366196568889
 20
0.0607500130928507
 30
0.0
 10
-0.0792532111816511
 20
0.0596170297547608
 30
0.0
 10
-0.0792856736204456
 20
0.0574002713317108
 30
0.0
 10
-0.0796752911530769
 20
0.0541572481746756
 30
0.0
 10
-0.0802001018467272
 20
0.0510580989568963
 30
0.0
 10
-0.0810070724107901
 20
0.048109695395108
 30
0.0
 10
-0.0820639886745068
 20
0.0453295469513771
 30
0.0
 10
-0.0833038332747308
 20
0.0426751677379621
 30
0.0
 10
-0.084799247856218
 20
0.0401917160884111
 30
0.0
 10
-0.0865175482385211
 20
0.037870176027716
 30
0.0
 10
-0.0884290283327297
 20
0.0357083684562921
 30
0.0
 10
-0.090525600700732
 20
0.0337219592242958
 30
0.0
 10
-0.0927988011928685
 20
0.0319225758218341
 30
0.0
 10
-0.0952414054478434
 20
0.0303061843383543
 30
0.0
 10
-0.0978772262681796
 20
0.0289102678226974
 30
0.0
 10
-0.1006662874323901
 20
0.0276599802272039
 30
0.0
 10
-0.1036328313860091
 20
0.0266099384697829
 30
0.0
 10
-0.1056856862669291
 20
0.0260575738466963
 30
0.0
 10
-0.1067294270463498
 20
0.0257767330100726
 30
0.0
  0
SPLINE
  5
102
330
1B
100
AcDbEntity
  8
0
  6
Continuous
 62
     7
370
    25
100
AcDbSpline
210
0.0
220
0.0
230
1.0
 70
     8
 71
     3
 72
    23
 73
    19
 74
     0
 42
0.000000001
 43
0.00000001
 40
0.0
 40
0.0
 40
0.0
 40
0.0
 40
0.0624813386352045
 40
0.1234903826872902
 40
0.1834110942063115
 40
0.2431532209997792
 40
0.3021267353720874
 40
0.3617096708329062
 40
0.4218422916948801
 40
0.4829319014466687
 40
0.5445522544313237
 40
0.6056807199653584
 40
0.6676797383436879
 40
0.7299843875380634
 40
0.7945509212861293
 40
0.8603456197120827
 40
0.9289073562657088
 40
1.0
 40
1.0
 40
1.0
 40
1.0
 10
-0.1056252982355281
 20
0.0956404835148172
 30
0.0
 10
-0.1046727969053985
 20
0.0953797768285298
 30
0.0
 10
-0.1027902387474402
 20
0.0948645066828831
 30
0.0
 10
-0.1000775992552502
 20
0.0938324703255742
 30
0.0
 10
-0.0974967391969677
 20
0.0926087630352005
 30
0.0
 10
-0.0950388038251102
 20
0.0912141197339841
 30
0.0
 10
-0.092733997404997
 20
0.0895887038211045
 30
0.0
 10
-0.0905479328000361
 20
0.0877984039101089
 30
0.0
 10
-0.0884999020797331
 20
0.0858018854623753
 30
0.0
 10
-0.0866014220842931
 20
0.0836215413738937
 30
0.0
 10
-0.0848579261164211
 20
0.0812939740557246
 30
0.0
 10
-0.0833567575051149
 20
0.0787844374451936
 30
0.0
 10
-0.0820997800628605
 20
0.0761351735310267
 30
0.0
 10
-0.0810216985083661
 20
0.0733480250602654
 30
0.0
 10
-0.0802457751040671
 20
0.0703995871275355
 30
0.0
 10
-0.0796612514936161
 20
0.0673103464828825
 30
0.0
 10
-0.0792902425323702
 20
0.0640806342702252
 30
0.0
 10
-0.0792547086050023
 20
0.061873552871766
 30
0.0
 10
-0.0792366196568889
 20
0.0607500130928507
 30
0.0
  0
SPLINE
  5
103
330
1B
100
AcDbEntity
  8
0
  6
Continuous
 62
     7
370
    25
100
AcDbSpline
210
0.0
220
0.0
230
1.0
 70
     8
 71
     3
 72
    15
 73
    11
 74
     0
 42
0.000000001
 43
0.00000001
 40
0.0
 40
0.0
 40
0.0
 40
0.0
 40
0.1769557521312497
 40
0.3390550796425813
 40
0.4863182249420763
 40
0.6187809228353786
 40
0.7356188277673815
 40
0.8387424767201108
 40
0.9264570678763172
 40
1.0
 40
1.0
 40
1.0
 40
1.0
 10
-0.1370101596831356
 20
0.0977107250351079
 30
0.0
 10
-0.1351514625905505
 20
0.0977086818760196
 30
0.0
 10
-0.1315901164169011
 20
0.0977047670924701
 30
0.0
 10
-0.1264832244598583
 20
0.0975860763119329
 30
0.0
 10
-0.1218450460493726
 20
0.0974275451271784
 30
0.0
 10
-0.11768558223336
 20
0.0972077855526461
 30
0.0
 10
-0.1139920350645968
 20
0.0969480772751851
 30
0.0
 10
-0.1107811177596142
 20
0.0965838237563887
 30
0.0
 10
-0.1080275919196992
 20
0.0962034971598011
 30
0.0
 10
-0.1063777317052694
 20
0.0958168276117934
 30
0.0
 10
-0.1056252982355281
 20
0.0956404835148172
 30
0.0
  0
SPLINE
  5
106
330
1B
100
AcDbEntity
  8
0
  6
Continuous
 62
     7
370
    25
100
AcDbSpline
210
0.0
220
0.0
230
1.0
 70
     8
 71
     3
 72
    23
 73
    19
 74
     0
 42
0.000000001
 43
0.00000001
 40
0.0
 40
0.0
 40
0.0
 40
0.0
 40
0.0645578459297189
 40
0.1270135315497587
 40
0.1879548102020906
 40
0.248013912789634
 40
0.3077476818488373
 40
0.3682345146974851
 40
0.4294698439426693
 40
0.4927434367465852
 40
0.5562577687060833
 40
0.6182167855431435
 40
0.6796554755875548
 40
0.7412455456206292
 40
0.8034152647056965
 40
0.8668154615439922
 40
0.9323283119492652
 40
1.0
 40
1.0
 40
1.0
 40
1.0
 10
-0.4431574757037292
 20
0.0296135806276781
 30
0.0
 10
-0.4430962476109312
 20
0.0320921417907206
 30
0.0
 10
-0.4429757851607928
 20
0.0369685561435604
 30
0.0
 10
-0.4419523286461574
 20
0.0441250109974626
 30
0.0
 10
-0.44030591934728
 20
0.0509813652830239
 30
0.0
 10
-0.4379674591663745
 20
0.0575248197943577
 30
0.0
 10
-0.4350026815559264
 20
0.0637897914570373
 30
0.0
 10
-0.4313402164441344
 20
0.0697284215691143
 30
0.0
 10
-0.4270226124196692
 20
0.0753786892721272
 30
0.0
 10
-0.4220837318022041
 20
0.0806548605830539
 30
0.0
 10
-0.4166676949793791
 20
0.0854792445445603
 30
0.0
 10
-0.4108677416766621
 20
0.0897235832748094
 30
0.0
 10
-0.4046952240793144
 20
0.0932557689440647
 30
0.0
 10
-0.3982181433046853
 20
0.0962083737639906
 30
0.0
 10
-0.3913879983611173
 20
0.0984778408165829
 30
0.0
 10
-0.3842193617813758
 20
0.1000665489539036
 30
0.0
 10
-0.3767257037191214
 20
0.1010554117999624
 30
0.0
 10
-0.3716130097959197
 20
0.1011804199851131
 30
0.0
 10
-0.3690152260570505
 20
0.1012439372297375
 30
0.0
  0
SPLINE
  5
107
330
1B
100
AcDbEntity
  8
0
  6
Continuous
 62
     7
370
    25
100
AcDbSpline
210
0.0
220
0.0
230
1.0
 70
     8
 71
     3
 72
    15
 73
    11
 74
     0
 42
0.000000001
 43
0.00000001
 40
0.0
 40
0.0
 40
0.0
 40
0.0
 40
0.1243285095938499
 40
0.247156016361187
 40
0.3687797492913395
 40
0.4907338624016481
 40
0.6136137718478439
 40
0.7389575757222155
 40
0.8673105751912625
 40
1.0
 40
1.0
 40
1.0
 40
1.0
 10
-0.4256846372724754
 20
-0.0195201514538887
 30
0.0
 10
-0.4270797413472706
 20
-0.0178059314177814
 30
0.0
 10
-0.4298531065767104
 20
-0.0143981869135252
 30
0.0
 10
-0.4334013618346298
 20
-0.0088751167852398
 30
0.0
 10
-0.4364386671578295
 20
-0.0031086518688689
 30
0.0
 10
-0.4388944120703558
 20
0.0029315028074432
 30
0.0
 10
-0.4408142047142388
 20
0.009231793643682
 30
0.0
 10
-0.4421441730244652
 20
0.0157953965732368
 30
0.0
 10
-0.443008409421229
 20
0.0226161816993073
 30
0.0
 10
-0.4431072396882044
 20
0.0272554253473346
 30
0.0
 10
-0.4431574757037292
 20
0.0296135806276781
 30
0.0
  0
SPLINE
  5
108
330
1B
100
AcDbEntity
  8
0
  6
Continuous
 62
     7
370
    25
100
AcDbSpline
210
0.0
220
0.0
230
1.0
 70
     8
 71
     3
 72
    23
 73
    19
 74
     0
 42
0.000000001
 43
0.00000001
 40
0.0
 40
0.0
 40
0.0
 40
0.0
 40
0.0696628008990778
 40
0.1377495622582733
 40
0.2039167435177836
 40
0.2687798623293377
 40
0.3324137064772243
 40
0.39475354044714
 40
0.4561800316591689
 40
0.51699564919672
 40
0.5773959379659527
 40
0.6371983435092754
 40
0.6969991842614552
 40
0.7567561942255594
 40
0.8165539052726082
 40
0.8769479965978708
 40
0.9381317879205956
 40
1.0
 40
1.0
 40
1.0
 40
1.0
 10
-0.3688496067354272
 20
-0.0436177627500728
 30
0.0
 10
-0.3703316408715572
 20
-0.043607448082522
 30
0.0
 10
-0.3732621798517438
 20
-0.0435870521047316
 30
0.0
 10
-0.3775889023561584
 20
-0.0432566518129615
 30
0.0
 10
-0.3818010905766956
 20
-0.0428058747692612
 30
0.0
 10
-0.3858867057682981
 20
-0.042127129451782
 30
0.0
 10
-0.3898680433685523
 20
-0.041326171181944
 30
0.0
 10
-0.3937090112618922
 20
-0.0402524996612659
 30
0.0
 10
-0.3974474053704932
 20
-0.0390497765669296
 30
0.0
 10
-0.401068206185301
 20
-0.0376361944116253
 30
0.0
 10
-0.4045744935788677
 20
-0.0360410691148781
 30
0.0
 10
-0.4079549585933527
 20
-0.0342382518353066
 30
0.0
 10
-0.4112080464830765
 20
-0.0322429028328939
 30
0.0
 10
-0.4143657402175354
 20
-0.0300990047847188
 30
0.0
 10
-0.4173813931181269
 20
-0.0277376936874573
 30
0.0
 10
-0.4202811382105445
 20
-0.0251917631951881
 30
0.0
 10
-0.4230812357000173
 20
-0.0224697942679694
 30
0.0
 10
-0.4248136248729209
 20
-0.0205070047663014
 30
0.0
 10
-0.4256846372724754
 20
-0.0195201514538887
 30
0.0
  0
SPLINE
  5
109
330
1B
100
AcDbEntity
  8
0
  6
Continuous
 62
     7
370
    25
100
AcDbSpline
210
0.0
220
0.0
230
1.0
 70
     8
 71
     3
 72
    23
 73
    19
 74
     0
 42
0.000000001
 43
0.00000001
 40
0.0
 40
0.0
 40
0.0
 40
0.0
 40
0.0616742388774261
 40
0.1230530616348063
 40
0.1834750007317025
 40
0.2437265005106117
 40
0.3042789165122542
 40
0.3648629209606832
 40
0.4259462039686199
 40
0.4873912299654086
 40
0.5492203840754762
 40
0.6111435886926031
 40
0.6735285303101519
 40
0.7369614566573043
 40
0.8007852828728406
 40
0.8660125956416155
 40
0.9321007477905793
 40
0.9999999999999999
 40
0.9999999999999999
 40
0.9999999999999999
 40
0.9999999999999999
 10
-0.3088954123078075
 20
-0.0147171911268142
 30
0.0
 10
-0.3097662040354106
 20
-0.0158407522261572
 30
0.0
 10
-0.3115036164474353
 20
-0.018082492630651
 30
0.0
 10
-0.3143169242028046
 20
-0.0212427961630942
 30
0.0
 10
-0.3172805973286197
 20
-0.0242153959858947
 30
0.0
 10
-0.3204166489036939
 20
-0.0269763259554807
 30
0.0
 10
-0.3236890029032879
 20
-0.0295808324753563
 30
0.0
 10
-0.3271564167751248
 20
-0.0319549203208563
 30
0.0
 10
-0.3307733078186391
 20
-0.0341317267886661
 30
0.0
 10
-0.3345274211613802
 20
-0.0361249127930791
 30
0.0
 10
-0.3384147681219955
 20
-0.0378933083452242
 30
0.0
 10
-0.342430690757507
 20
-0.0394072362110514
 30
0.0
 10
-0.3465578787694757
 20
-0.0407113657202062
 30
0.0
 10
-0.3507965208329429
 20
-0.0417842766148472
 30
0.0
 10
-0.3551554088969948
 20
-0.0426217208618338
 30
0.0
 10
-0.3596188133888531
 20
-0.0431815505801312
 30
0.0
 10
-0.3641963675313347
 20
-0.0435650905185108
 30
0.0
 10
-0.3672846124575447
 20
-0.0436000478342083
 30
0.0
 10
-0.3688496067354272
 20
-0.0436177627500728
 30
0.0
  0
SPLINE
  5
10B
330
1B
100
AcDbEntity
  8
0
  6
Continuous
 62
     7
370
    25
100
AcDbSpline
210
0.0
220
0.0
230
1.0
 70
     8
 71
     3
 72
    15
 73
    11
 74
     0
 42
0.000000001
 43
0.00000001
 40
0.0
 40
0.0
 40
0.0
 40
0.0
 40
0.1285151895116617
 40
0.2529486363526577
 40
0.3747547340060044
 40
0.4959397538670499
 40
0.617180641429892
 40
0.7409094692781376
 40
0.8678111481862024
 40
1.0
 40
1.0
 40
1.0
 40
1.0
 10
-0.3689324163962388
 20
-0.0294849139715547
 30
0.0
 10
-0.366526798719326
 20
-0.0294184265797867
 30
0.0
 10
-0.3617919676594867
 20
-0.0292875634876786
 30
0.0
 10
-0.3548483445751835
 20
-0.0281789316324477
 30
0.0
 10
-0.3482012671882236
 20
-0.0263813758121712
 30
0.0
 10
-0.3418503779543095
 20
-0.0238657095791326
 30
0.0
 10
-0.3358135808596308
 20
-0.020595422653828
 30
0.0
 10
-0.330081428878961
 20
-0.0166309392913317
 30
0.0
 10
-0.3246490835835298
 20
-0.011934548237764
 30
0.0
 10
-0.3213824976687113
 20
-0.0083485983063787
 30
0.0
 10
-0.3197158746538604
 20
-0.0065190347064629
 30
0.0
  0
SPLINE
  5
10C
330
1B
100
AcDbEntity
  8
0
  6
Continuous
 62
     7
370
    25
100
AcDbSpline
210
0.0
220
0.0
230
1.0
 70
     8
 71
     3
 72
    23
 73
    19
 74
     0
 42
0.000000001
 43
0.00000001
 40
0.0
 40
0.0
 40
0.0
 40
0.0
 40
0.0643232165798421
 40
0.1262901037035559
 40
0.1867264692161329
 40
0.2461464323353445
 40
0.3055756426461386
 40
0.3654293856180522
 40
0.4263263089482599
 40
0.4888399064006412
 40
0.5517249718140474
 40
0.6139185964661595
 40
0.6754837657683964
 40
0.7373338970992861
 40
0.8002290443945267
 40
0.864502298123323
 40
0.9310407391556971
 40
1.0
 40
1.0
 40
1.0
 40
1.0
 10
-0.4307912330225259
 20
0.0286750711384796
 30
0.0
 10
-0.430741555108199
 20
0.02663840499979
 30
0.0
 10
-0.430644019112866
 20
0.0226396811868201
 30
0.0
 10
-0.4297759744640294
 20
0.0167825705355901
 30
0.0
 10
-0.4284568763817992
 20
0.0111715203867605
 30
0.0
 10
-0.4264798851638582
 20
0.0058416053351494
 30
0.0
 10
-0.4240421272677764
 20
0.0007271030494012
 30
0.0
 10
-0.4209617882321336
 20
-0.0040854502343163
 30
0.0
 10
-0.4173942080209448
 20
-0.0086687795457944
 30
0.0
 10
-0.4132889159161763
 20
-0.0129145648902212
 30
0.0
 10
-0.4087847499323481
 20
-0.0167930580121935
 30
0.0
 10
-0.4039521549877055
 20
-0.0202084352370484
 30
0.0
 10
-0.3988031672796703
 20
-0.0230554778538351
 30
0.0
 10
-0.3933946385321663
 20
-0.0254246096064459
 30
0.0
 10
-0.3876849490078116
 20
-0.027245740616507
 30
0.0
 10
-0.3816843662356119
 20
-0.0285277927229345
 30
0.0
 10
-0.3754059412257663
 20
-0.0293640990434706
 30
0.0
 10
-0.3711158073718284
 20
-0.0294441655028855
 30
0.0
 10
-0.3689324163962388
 20
-0.0294849139715547
 30
0.0
  0
SPLINE
  5
10D
330
1B
100
AcDbEntity
  8
0
  6
Continuous
 62
     7
370
    25
100
AcDbSpline
210
0.0
220
0.0
230
1.0
 70
     8
 71
     3
 72
    31
 73
    27
 74
     0
 42
0.000000001
 43
0.00000001
 40
0.0
 40
0.0
 40
0.0
 40
0.0
 40
0.0439549089061949
 40
0.0875018747976052
 40
0.1304626267314906
 40
0.1727520205665181
 40
0.2154030673796033
 40
0.2576498297432398
 40
0.3001527489572942
 40
0.343121489502087
 40
0.3859251632064337
 40
0.4276857274028023
 40
0.4688179504865899
 40
0.5094918001549962
 40
0.5498830310733493
 40
0.5899800229668862
 40
0.63040523000684
 40
0.6708686260826384
 40
0.7113839438381759
 40
0.7516272580635844
 40
0.7917755768651915
 40
0.8324589188037423
 40
0.8733190450172882
 40
0.9145429556263492
 40
0.9569235582098846
 40
1.0
 40
1.0
 40
1.0
 40
1.0
 10
-0.3697881162246256
 20
0.0871110884512194
 30
0.0
 10
-0.3711693484821221
 20
0.0870951844153989
 30
0.0
 10
-0.3739189938589287
 20
0.0870635239482117
 30
0.0
 10
-0.3779996424219401
 20
0.0866458418535295
 30
0.0
 10
-0.3820040932538838
 20
0.0860587863399639
 30
0.0
 10
-0.3859297415302078
 20
0.0851877106225053
 30
0.0
 10
-0.389771590291596
 20
0.0840864264068556
 30
0.0
 10
-0.3935547557272507
 20
0.0827704652287574
 30
0.0
 10
-0.39722446438068
 20
0.0811423219271848
 30
0.0
 10
-0.4008314816332086
 20
0.0793427841336059
 30
0.0
 10
-0.4042873560818429
 20
0.0773102075689086
 30
0.0
 10
-0.4075572398526039
 20
0.0750931464712108
 30
0.0
 10
-0.4106292070935953
 20
0.0727164103909045
 30
0.0
 10
-0.4135056878862405
 20
0.0701710912421722
 30
0.0
 10
-0.4161896228600782
 20
0.0674686518533716
 30
0.0
 10
-0.4186615642303618
 20
0.0645802919482896
 30
0.0
 10
-0.4209129583352983
 20
0.061515245746823
 30
0.0
 10
-0.4229884317629909
 20
0.0583139304886202
 30
0.0
 10
-0.4248472007927057
 20
0.0549856709754357
 30
0.0
 10
-0.4264034952569139
 20
0.051518148517227
 30
0.0
 10
-0.4277816496744583
 20
0.0479707428860825
 30
0.0
 10
-0.4288721710384752
 20
0.0443033743495194
 30
0.0
 10
-0.4297353409924659
 20
0.0405418481352186
 30
0.0
 10
-0.4303309182866968
 20
0.0366760690820698
 30
0.0
 10
-0.4307438502234807
 20
0.0327141131924145
 30
0.0
 10
-0.4307753532510684
 20
0.0300287071839726
 30
0.0
 10
-0.4307912330225259
 20
0.0286750711384796
 30
0.0
  0
SPLINE
  5
10E
330
1B
100
AcDbEntity
  8
0
  6
Continuous
 62
     7
370
    25
100
AcDbSpline
210
0.0
220
0.0
230
1.0
 70
     8
 71
     3
 72
    19
 73
    15
 74
     0
 42
0.000000001
 43
0.00000001
 40
0.0
 40
0.0
 40
0.0
 40
0.0
 40
0.0631632593634701
 40
0.1254749410306406
 40
0.1871212198160326
 40
0.2482943461142987
 40
0.3092948562551213
 40
0.3698500660670939
 40
0.4309733755473823
 40
0.4924559896728176
 40
0.6161479662918559
 40
0.7408436984673633
 40
0.8681826486700441
 40
0.9999999999999999
 40
0.9999999999999999
 40
0.9999999999999999
 40
0.9999999999999999
 10
-0.3197158746538604
 20
0.0641452091861275
 30
0.0
 10
-0.320487760022215
 20
0.0650651292582193
 30
0.0
 10
-0.3220211240704404
 20
0.066892566885122
 30
0.0
 10
-0.3244880218076018
 20
0.0694586906833456
 30
0.0
 10
-0.327058952630285
 20
0.0718628348338463
 30
0.0
 10
-0.3297329337805209
 20
0.0741164521420712
 30
0.0
 10
-0.3325580959650467
 20
0.0761407342576126
 30
0.0
 10
-0.3354660014243348
 20
0.0780411713813499
 30
0.0
 10
-0.3385052945427041
 20
0.0797446256310556
 30
0.0
 10
-0.3427081187413432
 20
0.0818100975253842
 30
0.0
 10
-0.3482060655240349
 20
0.083965457958936
 30
0.0
 10
-0.3551271221804568
 20
0.0857726717896526
 30
0.0
 10
-0.3623519685774928
 20
0.0869231117772237
 30
0.0
 10
-0.367281007932886
 20
0.0870477118346712
 30
0.0
 10
-0.3697881162246256
 20
0.0871110884512194
 30
0.0
  0
SPLINE
  5
110
330
1B
100
AcDbEntity
  8
0
  6
Continuous
 62
     7
370
    25
100
AcDbSpline
210
0.0
220
0.0
230
1.0
 70
     8
 71
     3
 72
    23
 73
    19
 74
     0
 42
0.000000001
 43
0.00000001
 40
0.0
 40
0.0
 40
0.0
 40
0.0
 40
0.0685475367089032
 40
0.1356829456230481
 40
0.2012149895263284
 40
0.265682234754696
 40
0.3292668348172589
 40
0.3923954278443282
 40
0.4550697616521435
 40
0.5171268500645064
 40
0.5787900352866524
 40
0.6397398633435415
 40
0.7001915036663081
 40
0.7598062425966705
 40
0.819628319275008
 40
0.8793547910462762
 40
0.9395116077646612
 40
1.0
 40
1.0
 40
1.0
 40
1.0
 10
-0.3690152260570504
 20
0.1012439372297375
 30
0.0
 10
-0.3674319791300265
 20
0.1012249554111994
 30
0.0
 10
-0.3642981012837734
 20
0.1011873828130261
 30
0.0
 10
-0.3596621700864364
 20
0.100820999265206
 30
0.0
 10
-0.3551486926477267
 20
0.1002102273665004
 30
0.0
 10
-0.3507545594967681
 20
0.0993788860352756
 30
0.0
 10
-0.3464583935045277
 20
0.0983471017254497
 30
0.0
 10
-0.3422930296904108
 20
0.0970029954925132
 30
0.0
 10
-0.3382340262705448
 20
0.0954661241808753
 30
0.0
 10
-0.3343069826415515
 20
0.0936961058368638
 30
0.0
 10
-0.3305307405100426
 20
0.091709226253917
 30
0.0
 10
-0.3269064760017251
 20
0.0895275087914641
 30
0.0
 10
-0.3234629776274079
 20
0.0871536581810533
 30
0.0
 10
-0.3201760150905356
 20
0.0846078638735872
 30
0.0
 10
-0.3171005737095883
 20
0.0818362670509332
 30
0.0
 10
-0.314149334397179
 20
0.0789151018551195
 30
0.0
 10
-0.3114225202963283
 20
0.0757602268882953
 30
0.0
 10
-0.3097393236430167
 20
0.073539560198967
 30
0.0
 10
-0.3088954123078075
 20
0.0724261752672904
 30
0.0
  0
CIRCLE
  5
111
330
1B
100
AcDbEntity
  8
0
  6
Continuous
 62
     7
370
    25
100
AcDbCircle
 10
-1.25
 20
0.5
 30
0.0
 40
0.1874999999999998
  0
CIRCLE
  5
112
330
1B
100
AcDbEntity
  8
0
  6
Continuous
 62
     7
370
    25
100
AcDbCircle
 10
1.25
 20
0.5
 30
0.0
 40
0.1874999999999993
  0
CIRCLE
  5
113
330
1B
100
AcDbEntity
  8
0
  6
Continuous
 62
     7
370
    25
100
AcDbCircle
 10
1.25
 20
-0.5
 30
0.0
 40
0.1874999999999993
  0
CIRCLE
  5
114
330
1B
100
AcDbEntity
  8
0
  6
Continuous
 62
     7
370
    25
100
AcDbCircle
 10
-1.25
 20
-0.5
 30
0.0
 40
0.1874999999999996
  0
SPLINE
  5
125
330
1B
100
AcDbEntity
  8
0
  6
Continuous
 62
     7
370
    25
100
AcDbSpline
210
0.0
220
0.0
230
1.0
 70
     8
 71
     3
 72
    23
 73
    19
 74
     0
 42
0.000000001
 43
0.00000001
 40
0.0
 40
0.0
 40
0.0
 40
0.0
 40
0.0787802355821394
 40
0.1537206442085843
 40
0.226713530308781
 40
0.2991911660659364
 40
0.3711899968376686
 40
0.4430064143534095
 40
0.5166891732948802
 40
0.593217216623412
 40
0.6338729178078458
 40
0.6769891422899791
 40
0.7228995063258269
 40
0.7719586105061443
 40
0.8242113233348358
 40
0.879378650627202
 40
0.9379481193304179
 40
1.0
 40
1.0
 40
1.0
 40
1.0
 10
-0.1940660159823483
 20
0.0608604259739329
 30
0.0
 10
-0.194123850553549
 20
0.0590243982333446
 30
0.0
 10
-0.1942367007814876
 20
0.0554418325684603
 30
0.0
 10
-0.1952888702177088
 20
0.0502425852689022
 30
0.0
 10
-0.1970123552464
 20
0.045392612251562
 30
0.0
 10
-0.1993872878845619
 20
0.0408980202076459
 30
0.0
 10
-0.2024116766921794
 20
0.0368464199966172
 30
0.0
 10
-0.2060465109875871
 20
0.0332877406539447
 30
0.0
 10
-0.2102938185265506
 20
0.0303097913393457
 30
0.0
 10
-0.2142477286028964
 20
0.0282447202881055
 30
0.0
 10
-0.2177404136303228
 20
0.0269221648304379
 30
0.0
 10
-0.2206157409054421
 20
0.0259915995210269
 30
0.0
 10
-0.2237522360824428
 20
0.0252726245101182
 30
0.0
 10
-0.2271198476810997
 20
0.024628524834111
 30
0.0
 10
-0.2307325900233083
 20
0.024142237652555
 30
0.0
 10
-0.2345818041724897
 20
0.0237860725159662
 30
0.0
 10
-0.2386702353390286
 20
0.0235634721735141
 30
0.0
 10
-0.2414788601167114
 20
0.0235303223747369
 30
0.0
 10
-0.2429237158612095
 20
0.0235132689478881
 30
0.0
  0
SPLINE
  5
126
330
1B
100
AcDbEntity
  8
0
  6
Continuous
 62
     7
370
    25
100
AcDbSpline
210
0.0
220
0.0
230
1.0
 70
     8
 71
     3
 72
    23
 73
    19
 74
     0
 42
0.000000001
 43
0.00000001
 40
0.0
 40
0.0
 40
0.0
 40
0.0
 40
0.0642168426314302
 40
0.1270637656931292
 40
0.18874453834783
 40
0.2491321028350409
 40
0.3094525327106281
 40
0.369826676247682
 40
0.4306501418384683
 40
0.4923519318794693
 40
0.554072106262517
 40
0.6156897837449749
 40
0.6767977025065386
 40
0.7384390482469418
 40
0.8013169100648931
 40
0.8651845117115416
 40
0.9316413244190757
 40
1.0
 40
1.0
 40
1.0
 40
1.0
 10
-0.2218348555745146
 20
0.095833706056711
 30
0.0
 10
-0.2208267207659777
 20
0.095584620806098
 30
0.0
 10
-0.2188319574009486
 20
0.0950917639694087
 30
0.0
 10
-0.2159599075568583
 20
0.0940500474015488
 30
0.0
 10
-0.2132231231493096
 20
0.0928445503690801
 30
0.0
 10
-0.2106329725854625
 20
0.0914286558683684
 30
0.0
 10
-0.20820242962521
 20
0.0897918535190563
 30
0.0
 10
-0.2059064331372308
 20
0.0879623998798772
 30
0.0
 10
-0.2037345645002241
 20
0.0859503051645044
 30
0.0
 10
-0.20177465780021
 20
0.0837048389636122
 30
0.0
 10
-0.1999266636390072
 20
0.0813490708659746
 30
0.0
 10
-0.1983680562964648
 20
0.0788016788643534
 30
0.0
 10
-0.197024494102666
 20
0.0761378391980534
 30
0.0
 10
-0.1959547887089594
 20
0.0733304605462629
 30
0.0
 10
-0.1950934511706461
 20
0.0704067687406479
 30
0.0
 10
-0.1944861189119474
 20
0.0673402806805217
 30
0.0
 10
-0.1941218989264826
 20
0.0641449667008401
 30
0.0
 10
-0.1940848179991787
 20
0.0619655214728238
 30
0.0
 10
-0.1940660159823482
 20
0.0608604259739329
 30
0.0
  0
SPLINE
  5
127
330
1B
100
AcDbEntity
  8
0
  6
Continuous
 62
     7
370
    25
100
AcDbSpline
210
0.0
220
0.0
230
1.0
 70
     8
 71
     3
 72
    15
 73
    11
 74
     0
 42
0.000000001
 43
0.00000001
 40
0.0
 40
0.0
 40
0.0
 40
0.0
 40
0.1762577548178006
 40
0.3384344138804758
 40
0.4848220507878366
 40
0.6171575782663319
 40
0.734698360612477
 40
0.8373851838323608
 40
0.926372420929584
 40
1.0
 40
1.0
 40
1.0
 40
1.0
 10
-0.2530540977004989
 20
0.0977107250351079
 30
0.0
 10
-0.2512138957905154
 20
0.0977045996025081
 30
0.0
 10
-0.2476805042783476
 20
0.0976928380933829
 30
0.0
 10
-0.242618564500409
 20
0.0976272568765268
 30
0.0
 10
-0.2380190724925275
 20
0.0974392901163602
 30
0.0
 10
-0.233884433149333
 20
0.0972775348613554
 30
0.0
 10
-0.2302147223234944
 20
0.0969825765415467
 30
0.0
 10
-0.2269986872546774
 20
0.0967006613006094
 30
0.0
 10
-0.2242511401089604
 20
0.0963316195376587
 30
0.0
 10
-0.222587917616733
 20
0.0959888863500354
 30
0.0
 10
-0.2218348555745146
 20
0.095833706056711
 30
0.0
  0
SPLINE
  5
130
330
1B
100
AcDbEntity
  8
0
  6
Continuous
 62
     7
370
    25
100
AcDbSpline
210
0.0
220
0.0
230
1.0
 70
     8
 71
     3
 72
    23
 73
    19
 74
     0
 42
0.000000001
 43
0.00000001
 40
0.0
 40
0.0
 40
0.0
 40
0.0
 40
0.0619654006870625
 40
0.1221219056382957
 40
0.1809884968498415
 40
0.2399332164519025
 40
0.2999058311065245
 40
0.3599888474769871
 40
0.4217757417416465
 40
0.4865758264211276
 40
0.5515348046197428
 40
0.615017542759981
 40
0.6772586166616574
 40
0.7397299623627148
 40
0.8030501026629525
 40
0.8664951320156992
 40
0.9319734741771512
 40
1.0
 40
1.0
 40
1.0
 40
1.0
 10
0.2281528412758792
 20
0.0591766295374298
 30
0.0
 10
0.2281278120514926
 20
0.0601168420732884
 30
0.0
 10
0.2280784842565483
 20
0.0619698204339698
 30
0.0
 10
0.2276431418355323
 20
0.0646865826000571
 30
0.0
 10
0.2269852478948037
 20
0.0673072445613087
 30
0.0
 10
0.2260425212000032
 20
0.0698398673612235
 30
0.0
 10
0.2247981613541237
 20
0.0722589875213093
 30
0.0
 10
0.2232834613573679
 20
0.0745675497340495
 30
0.0
 10
0.2215358210653261
 20
0.0767993987576747
 30
0.0
 10
0.2195141175483625
 20
0.0788920482875201
 30
0.0
 10
0.2172931915717255
 20
0.0808086311805305
 30
0.0
 10
0.2149469612730943
 20
0.0825064298188914
 30
0.0
 10
0.2124646737038066
 20
0.0839252924487663
 30
0.0
 10
0.2098567948779868
 20
0.0850884222590193
 30
0.0
 10
0.2071305952949807
 20
0.0860008388415524
 30
0.0
 10
0.2042808021799259
 20
0.0866330663778952
 30
0.0
 10
0.2013152897278589
 20
0.0870300145647706
 30
0.0
 10
0.1992903489526368
 20
0.0870837221202181
 30
0.0
 10
0.198258553722881
 20
0.0871110884512194
 30
0.0
  0
SPLINE
  5
131
330
1B
100
AcDbEntity
  8
0
  6
Continuous
 62
     7
370
    25
100
AcDbSpline
210
0.0
220
0.0
230
1.0
 70
     8
 71
     3
 72
    19
 73
    15
 74
     0
 42
0.000000001
 43
0.00000001
 40
0.0
 40
0.0
 40
0.0
 40
0.0
 40
0.1108026438013196
 40
0.2128292023477697
 40
0.3061013098231107
 40
0.3906473211160095
 40
0.4669244693608519
 40
0.5344810392840313
 40
0.593586940965672
 40
0.6445570045087168
 40
0.7362004526293726
 40
0.8250240256188645
 40
0.9119855848297583
 40
1.0
 40
1.0
 40
1.0
 40
1.0
 10
0.2020954013404865
 20
0.0169437025234988
 30
0.0
 10
0.2033964992463075
 20
0.0183019035687196
 30
0.0
 10
0.2058956420462644
 20
0.0209107298129793
 30
0.0
 10
0.2094303891647367
 20
0.0247195077710117
 30
0.0
 10
0.2126051524841228
 20
0.0282529542573156
 30
0.0
 10
0.2154404829082102
 20
0.0315043931724528
 30
0.0
 10
0.2178748728832427
 20
0.034521384030544
 30
0.0
 10
0.220035196975675
 20
0.0372062148804555
 30
0.0
 10
0.2217661257544966
 20
0.0396768625303732
 30
0.0
 10
0.2236446846398379
 20
0.0425406662277169
 30
0.0
 10
0.2254641327263822
 20
0.0460372141479553
 30
0.0
 10
0.22702761131065
 20
0.0503101940401225
 30
0.0
 10
0.2279809518007531
 20
0.0547089047753976
 30
0.0
 10
0.2280953154033446
 20
0.0576814259189909
 30
0.0
 10
0.2281528412758791
 20
0.0591766295374297
 30
0.0
  0
SPLINE
  5
137
330
1B
100
AcDbEntity
  8
0
  6
Continuous
 62
     7
370
    25
100
AcDbSpline
210
0.0
220
0.0
230
1.0
 70
     8
 71
     3
 72
    19
 73
    15
 74
     0
 42
0.000000001
 43
0.00000001
 40
0.0
 40
0.0
 40
0.0
 40
0.0
 40
0.0987021963061526
 40
0.1956723088106642
 40
0.2924224265079543
 40
0.3913425437998245
 40
0.4444624406718922
 40
0.504228775449316
 40
0.5703523379946781
 40
0.6425457530977482
 40
0.722287505344018
 40
0.8079211226827112
 40
0.9004695379850143
 40
1.0
 40
1.0
 40
1.0
 40
1.0
 10
0.2405190839570824
 20
0.0602807583482515
 30
0.0
 10
0.240452420065095
 20
0.0583615522626284
 30
0.0
 10
0.2403202621380412
 20
0.0545568194409543
 30
0.0
 10
0.2391897748716073
 20
0.0489656831122461
 30
0.0
 10
0.237424164198558
 20
0.0435486193686763
 30
0.0
 10
0.2352982840076389
 20
0.039188883066139
 30
0.0
 10
0.2331536995957617
 20
0.0356757533906654
 30
0.0
 10
0.2312211205566418
 20
0.0327832846930377
 30
0.0
 10
0.2289587264219249
 20
0.02966889617377
 30
0.0
 10
0.2263335887068584
 20
0.0263430167495987
 30
0.0
 10
0.2234000110631288
 20
0.0227795952890254
 30
0.0
 10
0.2201314219545998
 20
0.0189807844465684
 30
0.0
 10
0.2165045132135998
 20
0.0149858328788498
 30
0.0
 10
0.2139589029476809
 20
0.012257265895077
 30
0.0
 10
0.2126398314838339
 20
0.0108433908437088
 30
0.0
  0
SPLINE
  5
138
330
1B
100
AcDbEntity
  8
0
  6
Continuous
 62
     7
370
    25
100
AcDbSpline
210
0.0
220
0.0
230
1.0
 70
     8
 71
     3
 72
    23
 73
    19
 74
     0
 42
0.000000001
 43
0.00000001
 40
0.0
 40
0.0
 40
0.0
 40
0.0
 40
0.0694754602496705
 40
0.1365167976177981
 40
0.2007888236092601
 40
0.263829672855826
 40
0.3257350229654201
 40
0.3872906922152902
 40
0.4495092187626034
 40
0.5129678195454412
 40
0.5762752154930607
 40
0.6375801002639241
 40
0.6979026059171025
 40
0.7571720884269852
 40
0.8165985284886557
 40
0.8766531708928198
 40
0.9372896424102404
 40
1.0
 40
1.0
 40
1.0
 40
1.0
 10
0.1988934277891035
 20
0.1012439372297375
 30
0.0
 10
0.2004043755878178
 20
0.1012085649287363
 30
0.0
 10
0.2033733340388576
 20
0.1011390596208235
 30
0.0
 10
0.2077064842141681
 20
0.1005421687047908
 30
0.0
 10
0.2118315745473719
 20
0.0996073028923777
 30
0.0
 10
0.2157405417332738
 20
0.0982956723288622
 30
0.0
 10
0.2194021978187559
 20
0.0965325058960855
 30
0.0
 10
0.2228440499666436
 20
0.0944144925630874
 30
0.0
 10
0.2261070740135335
 20
0.091964892902766
 30
0.0
 10
0.2290443489588941
 20
0.089080884499286
 30
0.0
 10
0.2317415174327626
 20
0.0860020504650198
 30
0.0
 10
0.2340683778715133
 20
0.0827151251259587
 30
0.0
 10
0.2360610221027468
 20
0.079320271357651
 30
0.0
 10
0.2377219543815333
 20
0.0757916020040481
 30
0.0
 10
0.2389446370169322
 20
0.0720958922240209
 30
0.0
 10
0.2398729129236003
 20
0.0682869472322238
 30
0.0
 10
0.2403976142499031
 20
0.0643253404996819
 30
0.0
 10
0.2404781427340704
 20
0.0616439800411093
 30
0.0
 10
0.2405190839570824
 20
0.0602807583482515
 30
0.0
  0
SPLINE
  5
139
330
1B
100
AcDbEntity
  8
0
  6
Continuous
 62
     7
370
    25
100
AcDbSpline
210
0.0
220
0.0
230
1.0
 70
     8
 71
     3
 72
    23
 73
    19
 74
     0
 42
0.000000001
 43
0.00000001
 40
0.0
 40
0.0
 40
0.0
 40
0.0
 40
0.0687907943906182
 40
0.1351032894311276
 40
0.1989786743106511
 40
0.2619042997808561
 40
0.3234949693679694
 40
0.3851953779660511
 40
0.4469692387407743
 40
0.5097647767031317
 40
0.5722505688473689
 40
0.6334051756611524
 40
0.6932511629217518
 40
0.7525831627856703
 40
0.8125792661534215
 40
0.8732750849201915
 40
0.9355499428950295
 40
1.0
 40
1.0
 40
1.0
 40
1.0
 10
0.1539553851886593
 20
0.0553121786995537
 30
0.0
 10
0.1540359817637747
 20
0.0569527648321441
 30
0.0
 10
0.1541942712923581
 20
0.0601748323350931
 30
0.0
 10
0.1549355425231352
 20
0.0648726239256084
 30
0.0
 10
0.1559962069800197
 20
0.0693629703320991
 30
0.0
 10
0.1574958705239098
 20
0.0736098173387785
 30
0.0
 10
0.1593583224046091
 20
0.0776507152612322
 30
0.0
 10
0.1615917880495261
 20
0.0814696135167946
 30
0.0
 10
0.1642372152350941
 20
0.085051943781149
 30
0.0
 10
0.1672374803549926
 20
0.0883644966667975
 30
0.0
 10
0.170496088191804
 20
0.0914033774069287
 30
0.0
 10
0.1740120700607424
 20
0.0940275995646519
 30
0.0
 10
0.1777067561743765
 20
0.0962448307206351
 30
0.0
 10
0.1815689372360061
 20
0.0980984229184242
 30
0.0
 10
0.185642187769843
 20
0.0994897554350592
 30
0.0
 10
0.1898895443776951
 20
0.1005221034509882
 30
0.0
 10
0.1943296678583816
 20
0.1011432194242785
 30
0.0
 10
0.1973548655767648
 20
0.1012099826370461
 30
0.0
 10
0.1988934277891035
 20
0.1012439372297375
 30
0.0
  0
SPLINE
  5
13B
330
1B
100
AcDbEntity
  8
0
  6
Continuous
 62
     7
370
    25
100
AcDbSpline
210
0.0
220
0.0
230
1.0
 70
     8
 71
     3
 72
    23
 73
    19
 74
     0
 42
0.000000001
 43
0.00000001
 40
0.0
 40
0.0
 40
0.0
 40
0.0
 40
0.0644386715952452
 40
0.1265469112716776
 40
0.1868871534365717
 40
0.245877535589456
 40
0.3040408846912677
 40
0.3621912180726622
 40
0.4209759327916455
 40
0.4806602832796669
 40
0.5406002749537577
 40
0.6006890983494532
 40
0.661935789757196
 40
0.724442505913983
 40
0.7890383938817435
 40
0.8563137570509943
 40
0.9263520282058634
 40
1.0
 40
1.0
 40
1.0
 40
1.0
 10
0.198258553722881
 20
0.0871110884512194
 30
0.0
 10
0.1971809618820809
 20
0.0870829375746866
 30
0.0
 10
0.1950647494324919
 20
0.0870276539012865
 30
0.0
 10
0.1919577008916832
 20
0.0866409348464823
 30
0.0
 10
0.1889936939025547
 20
0.0859737757757368
 30
0.0
 10
0.1861652725264556
 20
0.085061308280185
 30
0.0
 10
0.1834676510377657
 20
0.0839015228934792
 30
0.0
 10
0.1809139485166111
 20
0.0824569660163624
 30
0.0
 10
0.1785098977583466
 20
0.0807332064434275
 30
0.0
 10
0.1762509795163981
 20
0.0787788538322448
 30
0.0
 10
0.1741697204981484
 20
0.076602964020594
 30
0.0
 10
0.1723411033381123
 20
0.0741773749234702
 30
0.0
 10
0.1707433075056856
 20
0.071546374318309
 30
0.0
 10
0.1693492431954574
 20
0.0687170613037677
 30
0.0
 10
0.1682171294126713
 20
0.0656637628791807
 30
0.0
 10
0.1673520447500295
 20
0.0623973178064071
 30
0.0
 10
0.1666675232255564
 20
0.058931909088354
 30
0.0
 10
0.1664388413119797
 20
0.0565387955113236
 30
0.0
 10
0.1663216278698626
 20
0.0553121786995537
 30
0.0
  0
SPLINE
  5
145
330
1B
100
AcDbEntity
  8
0
  6
Continuous
 62
     7
370
    25
100
AcDbSpline
210
0.0
220
0.0
230
1.0
 70
     8
 71
     3
 72
    23
 73
    19
 74
     0
 42
0.000000001
 43
0.00000001
 40
0.0
 40
0.0
 40
0.0
 40
0.0
 40
0.0725383714064942
 40
0.1400338305012514
 40
0.2024956806336242
 40
0.260575055669416
 40
0.3132283378464658
 40
0.3615831937532658
 40
0.4048783612951279
 40
0.4441274373055405
 40
0.5163996933371992
 40
0.5865066709977663
 40
0.6550853737960486
 40
0.7243837831470363
 40
0.7939735287256631
 40
0.8616376821817772
 40
0.9301109423064039
 40
0.9999999999999999
 40
0.9999999999999999
 40
0.9999999999999999
 40
0.9999999999999999
 10
-0.1275422551303393
 20
0.0373424823034302
 30
0.0
 10
-0.1263643052951874
 20
0.0373418735006293
 30
0.0
 10
-0.1240902974238187
 20
0.0373406982193737
 30
0.0
 10
-0.1208054067453447
 20
0.037497596781548
 30
0.0
 10
-0.1177577970090041
 20
0.0376787201147918
 30
0.0
 10
-0.1149568294746213
 20
0.0379439139518785
 30
0.0
 10
-0.1124012415028374
 20
0.0383187666087362
 30
0.0
 10
-0.1100867718621109
 20
0.0386971814874035
 30
0.0
 10
-0.1080313670237289
 20
0.039244636707818
 30
0.0
 10
-0.1056258866392466
 20
0.0399817654140827
 30
0.0
 10
-0.102945439888192
 20
0.0412389550070349
 30
0.0
 10
-0.1000293946707436
 20
0.0430637538280417
 30
0.0
 10
-0.0975581117435281
 20
0.0453897659619039
 30
0.0
 10
-0.0954195961229941
 20
0.0480050349117662
 30
0.0
 10
-0.0937225143143957
 20
0.0509144494560991
 30
0.0
 10
-0.0924801524121722
 20
0.0540273997209033
 30
0.0
 10
-0.0917501855868357
 20
0.0573119607256948
 30
0.0
 10
-0.0916523039468486
 20
0.0595595252475521
 30
0.0
 10
-0.0916028623380922
 20
0.0606948066523096
 30
0.0
  0
SPLINE
  5
146
330
1B
100
AcDbEntity
  8
0
  6
Continuous
 62
     7
370
    25
100
AcDbSpline
210
0.0
220
0.0
230
1.0
 70
     8
 71
     3
 72
    23
 73
    19
 74
     0
 42
0.000000001
 43
0.00000001
 40
0.0
 40
0.0
 40
0.0
 40
0.0
 40
0.0700437554181557
 40
0.1392383167626456
 40
0.2081974550441379
 40
0.2791733744245674
 40
0.3499868116864772
 40
0.4183538456626554
 40
0.4876095837571503
 40
0.5574110731083887
 40
0.5953301567632407
 40
0.6379640515652197
 40
0.6859127777112936
 40
0.7381851646524784
 40
0.7961026471849421
 40
0.8585165439469267
 40
0.9266577264685197
 40
1.0
 40
1.0
 40
1.0
 40
1.0
 10
-0.0916028623380922
 20
0.0606948066523096
 30
0.0
 10
-0.0916525728300424
 20
0.0618026221424222
 30
0.0
 10
-0.0917513911355896
 20
0.0640048222272978
 30
0.0
 10
-0.092485873937191
 20
0.0672323324875229
 30
0.0
 10
-0.0937200988924484
 20
0.0703124783295224
 30
0.0
 10
-0.0954309884402771
 20
0.0731854344457988
 30
0.0
 10
-0.0975074108796721
 20
0.0757912928696276
 30
0.0
 10
-0.0999207708445533
 20
0.0780549592894253
 30
0.0
 10
-0.1026653874324932
 20
0.0798747113654534
 30
0.0
 10
-0.1052184673944119
 20
0.0810492500130392
 30
0.0
 10
-0.1074862306238391
 20
0.0817663868411158
 30
0.0
 10
-0.1094559928239882
 20
0.0822681522134478
 30
0.0
 10
-0.1116800351266002
 20
0.0826687666325396
 30
0.0
 10
-0.114159081564016
 20
0.0829931565064053
 30
0.0
 10
-0.1168739175435596
 20
0.0832708518301598
 30
0.0
 10
-0.1198478669488595
 20
0.0834592761307106
 30
0.0
 10
-0.1230696639277739
 20
0.0835695696833302
 30
0.0
 10
-0.1253063005760002
 20
0.083575040362727
 30
0.0
 10
-0.1264657295397882
 20
0.0835778762565899
 30
0.0
  0
SPLINE
  5
14A
330
1B
100
AcDbEntity
  8
0
  6
Continuous
 62
     7
370
    25
100
AcDbSpline
210
0.0
220
0.0
230
1.0
 70
     8
 71
     3
 72
    23
 73
    19
 74
     0
 42
0.000000001
 43
0.00000001
 40
0.0
 40
0.0
 40
0.0
 40
0.0
 40
0.0688142958243096
 40
0.1363648245522147
 40
0.2040193535112466
 40
0.2730637386246113
 40
0.3429133195614896
 40
0.4109654441389576
 40
0.4791687665134468
 40
0.5493080065097825
 40
0.5876515764176498
 40
0.6306466687627903
 40
0.6788787856966486
 40
0.7319342992295832
 40
0.7911114229480473
 40
0.8552831895130775
 40
0.9250859386773845
 40
1.0
 40
1.0
 40
1.0
 40
1.0
 10
-0.2064322586635515
 20
0.0608880291942034
 30
0.0
 10
-0.2064795862654605
 20
0.0619961620182068
 30
0.0
 10
-0.2065733723029909
 20
0.0641920769268122
 30
0.0
 10
-0.207339071851287
 20
0.0674068765444348
 30
0.0
 10
-0.2086339293850055
 20
0.0704410084393471
 30
0.0
 10
-0.2103788993820441
 20
0.0732821298957133
 30
0.0
 10
-0.2125048503648203
 20
0.0758610958742326
 30
0.0
 10
-0.2149976776362623
 20
0.0780676767032688
 30
0.0
 10
-0.2177892207524071
 20
0.0798885217693357
 30
0.0
 10
-0.2203983230497252
 20
0.0810520800572043
 30
0.0
 10
-0.2227303786596619
 20
0.0817654601062567
 30
0.0
 10
-0.2247551684250522
 20
0.082267474429526
 30
0.0
 10
-0.2270430218785713
 20
0.082670799977949
 30
0.0
 10
-0.2296050478081751
 20
0.0829939519809102
 30
0.0
 10
-0.2324303088626978
 20
0.0832717056914925
 30
0.0
 10
-0.2355330904017335
 20
0.0834587835914187
 30
0.0
 10
-0.238892806160052
 20
0.0835695656428364
 30
0.0
 10
-0.2412214254982971
 20
0.0835750415830158
 30
0.0
 10
-0.2424268578963397
 20
0.0835778762565899
 30
0.0
  0
SPLINE
  5
14B
330
1B
100
AcDbEntity
  8
0
  6
Continuous
 62
     7
370
    25
100
AcDbSpline
210
0.0
220
0.0
230
1.0
 70
     8
 71
     3
 72
    23
 73
    19
 74
     0
 42
0.000000001
 43
0.00000001
 40
0.0
 40
0.0
 40
0.0
 40
0.0
 40
0.0716681496796057
 40
0.1389132862742052
 40
0.2011845700265596
 40
0.2591244282905456
 40
0.3122550414262358
 40
0.3606815096231102
 40
0.4050861433286449
 40
0.4451016585907113
 40
0.5187777804882605
 40
0.5894615790331977
 40
0.6584622419857172
 40
0.7272832183683671
 40
0.7963224869047191
 40
0.8631748932078812
 40
0.930949380987856
 40
1.0
 40
1.0
 40
1.0
 40
1.0
 10
-0.2430341287422917
 20
0.0374528951845123
 30
0.0
 10
-0.2418561744540298
 20
0.0374523740563958
 30
0.0
 10
-0.2395729635438169
 20
0.0374513639616807
 30
0.0
 10
-0.236269787763841
 20
0.0376085992468602
 30
0.0
 10
-0.2331941928153529
 20
0.0377874700438277
 30
0.0
 10
-0.2303579427302184
 20
0.0380610663248018
 30
0.0
 10
-0.2277597704732905
 20
0.0384136675738474
 30
0.0
 10
-0.2254009746771647
 20
0.0388547299454469
 30
0.0
 10
-0.2232777049174506
 20
0.0393685906795763
 30
0.0
 10
-0.220801384507108
 20
0.0401639302783944
 30
0.0
 10
-0.2180361667371504
 20
0.0414240097376566
 30
0.0
 10
-0.2150309911514393
 20
0.0432572970878353
 30
0.0
 10
-0.2124718439959065
 20
0.0455631679212009
 30
0.0
 10
-0.2103097234327195
 20
0.048199918158776
 30
0.0
 10
-0.2085723442407775
 20
0.051098983073645
 30
0.0
 10
-0.2073474602118588
 20
0.0542256117829438
 30
0.0
 10
-0.2065701987042966
 20
0.0575008715470228
 30
0.0
 10
-0.2064785236866027
 20
0.0597519781550833
 30
0.0
 10
-0.2064322586635515
 20
0.0608880291942034
 30
0.0
  0
SPLINE
  5
161
330
1B
100
AcDbEntity
  8
0
  6
Continuous
 62
     7
370
    25
100
AcDbSpline
210
0.0
220
0.0
230
1.0
 70
     8
 71
     3
 72
    36
 73
    32
 74
     0
 42
0.000000001
 43
0.00000001
 40
0.0
 40
0.0
 40
0.0
 40
0.0
 40
0.1250000000000017
 40
0.1250000000000017
 40
0.1875000000000016
 40
0.1875000000000016
 40
0.2500000000000016
 40
0.2500000000000016
 40
0.3125000000000014
 40
0.3125000000000014
 40
0.3750000000000014
 40
0.3750000000000014
 40
0.4375000000000013
 40
0.4375000000000013
 40
0.5000000000000012
 40
0.5000000000000012
 40
0.5625000000000011
 40
0.5625000000000011
 40
0.6250000000000009
 40
0.6250000000000009
 40
0.6875000000000008
 40
0.6875000000000008
 40
0.7500000000000007
 40
0.7500000000000007
 40
0.8125000000000006
 40
0.8125000000000006
 40
0.8750000000000003
 40
0.8750000000000003
 40
0.9375000000000002
 40
0.9375000000000002
 40
1.0
 40
1.0
 40
1.0
 40
1.0
 10
2.075
 20
-0.126044634951274
 30
0.0
 10
2.089643581759696
 20
-0.1231401912664326
 30
0.0
 10
2.103402625001098
 20
-0.1178137558630705
 30
0.0
 10
2.122466474182392
 20
-0.1063756455983485
 30
0.0
 10
2.128400299964987
 20
-0.1020738542040116
 30
0.0
 10
2.139469706552228
 20
-0.0925248634482637
 30
0.0
 10
2.144639041791179
 20
-0.0872349931824531
 30
0.0
 10
2.153986252891781
 20
-0.0758508502010461
 30
0.0
 10
2.158120177882388
 20
-0.0698261638403548
 30
0.0
 10
2.165340230029897
 20
-0.0571165243920698
 30
0.0
 10
2.168447014344613
 20
-0.0503701820621799
 30
0.0
 10
2.173440107939459
 20
-0.0364608036118865
 30
0.0
 10
2.17531515064513
 20
-0.0293652383831088
 30
0.0
 10
2.177845110740407
 20
-0.0148940211588946
 30
0.0
 10
2.178498276256446
 20
-0.0074466625320491
 30
0.0
 10
2.178501716830578
 20
0.0073870532242664
 30
0.0
 10
2.177866092888736
 20
0.0147181981668447
 30
0.0
 10
2.175351136020991
 20
0.0292139652590424
 30
0.0
 10
2.173443297183536
 20
0.0364470667876158
 30
0.0
 10
2.168463085339438
 20
0.0503302464609974
 30
0.0
 10
2.1654070694037
 20
0.0569838423744828
 30
0.0
 10
2.158180648427704
 20
0.0697344768810367
 30
0.0
 10
2.153964832923396
 20
0.07587663973616
 30
0.0
 10
2.14466467266694
 20
0.0872040749695897
 30
0.0
 10
2.139570165569856
 20
0.0924289990690448
 30
0.0
 10
2.128483338753247
 20
0.1020112737262902
 30
0.0
 10
2.122434966246311
 20
0.1063925687016241
 30
0.0
 10
2.109839616889156
 20
0.1139536013498168
 30
0.0
 10
2.103258752220494
 20
0.117175136148495
 30
0.0
 10
2.089520332124162
 20
0.1224934715333771
 30
0.0
 10
2.082321916038418
 20
0.1245923882845976
 30
0.0
 10
2.075
 20
0.1260446349512741
 30
0.0
  0
SPLINE
  5
162
330
1B
100
AcDbEntity
  8
0
  6
Continuous
 62
     7
370
    25
100
AcDbSpline
210
0.0
220
0.0
230
1.0
 70
     8
 71
     3
 72
    38
 73
    34
 74
     0
 42
0.000000001
 43
0.00000001
 40
0.0
 40
0.0
 40
0.0
 40
0.0
 40
0.0625000000000004
 40
0.0625000000000004
 40
0.1250000000000009
 40
0.1250000000000009
 40
0.1875000000000013
 40
0.1875000000000013
 40
0.2500000000000017
 40
0.2500000000000017
 40
0.3125000000000022
 40
0.3125000000000022
 40
0.3750000000000026
 40
0.3750000000000026
 40
0.4375000000000023
 40
0.4375000000000023
 40
0.500000000000002
 40
0.500000000000002
 40
0.5625000000000018
 40
0.5625000000000018
 40
0.6250000000000016
 40
0.6250000000000016
 40
0.6875000000000013
 40
0.6875000000000013
 40
0.750000000000001
 40
0.750000000000001
 40
0.8125000000000008
 40
0.8125000000000008
 40
0.8750000000000006
 40
0.8750000000000006
 40
0.9375000000000003
 40
0.9375000000000003
 40
1.0
 40
1.0
 40
1.0
 40
1.0
 10
2.075
 20
0.5016741406585189
 30
0.0
 10
2.086367590611085
 20
0.5032034744459919
 30
0.0
 10
2.097391649097021
 20
0.5057391570466472
 30
0.0
 10
2.118797916204683
 20
0.5127149343875684
 30
0.0
 10
2.129274617844405
 20
0.5172103061092792
 30
0.0
 10
2.149084859451419
 20
0.5279216947474867
 30
0.0
 10
2.158362000652799
 20
0.5340802469231347
 30
0.0
 10
2.175738868372429
 20
0.547966201943527
 30
0.0
 10
2.183886375017453
 20
0.555766923748056
 30
0.0
 10
2.198477661637037
 20
0.572462837357173
 30
0.0
 10
2.204989282008915
 20
0.5813937901887897
 30
0.0
 10
2.21645682929916
 20
0.600480868323052
 30
0.0
 10
2.221407290614681
 20
0.6106857118830215
 30
0.0
 10
2.229311430118744
 20
0.6315687460934879
 30
0.0
 10
2.232331829390673
 20
0.6423405011151875
 30
0.0
 10
2.236439287568484
 20
0.6645943587858216
 30
0.0
 10
2.237492576545601
 20
0.6760785332256155
 30
0.0
 10
2.237507343389733
 20
0.6986764188321416
 30
0.0
 10
2.236501822770204
 20
0.7099277869880041
 30
0.0
 10
2.232416606944574
 20
0.7323343287740212
 30
0.0
 10
2.229367233600905
 20
0.7432572300540555
 30
0.0
 10
2.221462241167083
 20
0.7641953261085944
 30
0.0
 10
2.216545007868366
 20
0.7743559461260567
 30
0.0
 10
2.205046177534735
 20
0.7935277221069732
 30
0.0
 10
2.198524979509151
 20
0.8024756977791707
 30
0.0
 10
2.18394592088453
 20
0.8191722100383981
 30
0.0
 10
2.175800277896436
 20
0.8269788178056979
 30
0.0
 10
2.158421659459447
 20
0.840877945922337
 30
0.0
 10
2.149169619942479
 20
0.8470208805575765
 30
0.0
 10
2.12948811686559
 20
0.8576856754564337
 30
0.0
 10
2.118957176440742
 20
0.862226512303336
 30
0.0
 10
2.097430692034366
 20
0.8692547131094781
 30
0.0
 10
2.086371213680178
 20
0.8717960381260064
 30
0.0
 10
2.075
 20
0.8733258593414811
 30
0.0
  0
SPLINE
  5
163
330
1B
100
AcDbEntity
  8
0
  6
Continuous
 62
     7
370
    25
100
AcDbSpline
210
0.0
220
0.0
230
1.0
 70
     8
 71
     3
 72
    38
 73
    34
 74
     0
 42
0.000000001
 43
0.00000001
 40
0.0
 40
0.0
 40
0.0
 40
0.0
 40
0.0625000000000001
 40
0.0625000000000001
 40
0.1250000000000002
 40
0.1250000000000002
 40
0.1875000000000004
 40
0.1875000000000004
 40
0.2500000000000005
 40
0.2500000000000005
 40
0.3125000000000006
 40
0.3125000000000006
 40
0.3750000000000008
 40
0.3750000000000008
 40
0.4375000000000009
 40
0.4375000000000009
 40
0.500000000000001
 40
0.500000000000001
 40
0.5625000000000011
 40
0.5625000000000011
 40
0.6250000000000012
 40
0.6250000000000012
 40
0.687500000000001
 40
0.687500000000001
 40
0.7500000000000008
 40
0.7500000000000008
 40
0.8125000000000007
 40
0.8125000000000007
 40
0.8750000000000004
 40
0.8750000000000004
 40
0.9375000000000002
 40
0.9375000000000002
 40
1.0
 40
1.0
 40
1.0
 40
1.0
 10
2.075
 20
-0.873325859341481
 30
0.0
 10
2.086367590611085
 20
-0.8717965255540083
 30
0.0
 10
2.097391649097021
 20
-0.8692608429533528
 30
0.0
 10
2.118797916204684
 20
-0.8622850656124313
 30
0.0
 10
2.129274617844406
 20
-0.8577896938907207
 30
0.0
 10
2.14908485945142
 20
-0.8470783052525133
 30
0.0
 10
2.158362000652798
 20
-0.8409197530768651
 30
0.0
 10
2.175738868372429
 20
-0.8270337980564735
 30
0.0
 10
2.183886375017453
 20
-0.8192330762519441
 30
0.0
 10
2.198477661637037
 20
-0.8025371626428268
 30
0.0
 10
2.204989282008915
 20
-0.7936062098112104
 30
0.0
 10
2.21645682929916
 20
-0.774519131676948
 30
0.0
 10
2.221407290614681
 20
-0.7643142881169783
 30
0.0
 10
2.229311430118745
 20
-0.743431253906512
 30
0.0
 10
2.232331829390673
 20
-0.7326594988848124
 30
0.0
 10
2.236439287568486
 20
-0.710405641214178
 30
0.0
 10
2.237492576545601
 20
-0.6989214667743845
 30
0.0
 10
2.237507343389733
 20
-0.6763235811678585
 30
0.0
 10
2.236501822770204
 20
-0.665072213011996
 30
0.0
 10
2.232416606944573
 20
-0.6426656712259793
 30
0.0
 10
2.229367233600904
 20
-0.6317427699459447
 30
0.0
 10
2.221462241167082
 20
-0.6108046738914058
 30
0.0
 10
2.216545007868366
 20
-0.6006440538739433
 30
0.0
 10
2.205046177534736
 20
-0.5814722778930267
 30
0.0
 10
2.198524979509151
 20
-0.5725243022208287
 30
0.0
 10
2.18394592088453
 20
-0.5558277899616018
 30
0.0
 10
2.175800277896436
 20
-0.5480211821943023
 30
0.0
 10
2.158421659459446
 20
-0.5341220540776634
 30
0.0
 10
2.149169619942479
 20
-0.5279791194424237
 30
0.0
 10
2.12948811686559
 20
-0.5173143245435669
 30
0.0
 10
2.118957176440743
 20
-0.512773487696664
 30
0.0
 10
2.097430692034366
 20
-0.5057452868905221
 30
0.0
 10
2.086371213680178
 20
-0.5032039618739937
 30
0.0
 10
2.075
 20
-0.5016741406585189
 30
0.0
  0
CIRCLE
  5
166
330
1B
100
AcDbEntity
  8
0
  6
Continuous
 62
     7
370
    25
100
AcDbCircle
 10
2.05
 20
0.6875
 30
0.0
 40
0.0979999999999994
  0
CIRCLE
  5
167
330
1B
100
AcDbEntity
  8
0
  6
Continuous
 62
     7
370
    25
100
AcDbCircle
 10
2.05
 20
-0.6875
 30
0.0
 40
0.0979999999999994
  0
CIRCLE
  5
168
330
1B
100
AcDbEntity
  8
0
  6
Continuous
 62
     7
370
    25
100
AcDbCircle
 10
2.05
 20
-0.6875
 30
0.0
 40
0.0794999999999999
  0
CIRCLE
  5
169
330
1B
100
AcDbEntity
  8
0
  6
Continuous
 62
     7
370
    25
100
AcDbCircle
 10
2.05
 20
0.6875
 30
0.0
 40
0.0794999999999999
  0
CIRCLE
  5
16A
330
1B
100
AcDbEntity
  8
0
  6
Continuous
 62
     7
370
    25
100
AcDbCircle
 10
2.05
 20
0.0
 30
0.0
 40
0.0868930129412355
  0
CIRCLE
  5
16B
330
1B
100
AcDbEntity
  8
0
  6
Continuous
 62
     7
370
    25
100
AcDbCircle
 10
-1.25
 20
-0.5
 30
0.0
 40
0.0979999999999988
  0
CIRCLE
  5
16C
330
1B
100
AcDbEntity
  8
0
  6
Continuous
 62
     7
370
    25
100
AcDbCircle
 10
1.25
 20
0.5
 30
0.0
 40
0.0979999999999992
  0
CIRCLE
  5
16D
330
1B
100
AcDbEntity
  8
0
  6
Continuous
 62
     7
370
    25
100
AcDbCircle
 10
1.25
 20
-0.5
 30
0.0
 40
0.0979999999999994
  0
CIRCLE
  5
16E
330
1B
100
AcDbEntity
  8
0
  6
Continuous
 62
     7
370
    25
100
AcDbCircle
 10
-1.25
 20
0.5
 30
0.0
 40
0.0979999999999988
  0
LINE
  5
16F
330
1B
100
AcDbEntity
  8
0
  6
Continuous
 62
     7
370
    25
100
AcDbLine
 10
0.4242461181
 20
-0.0400845506
 30
0.0
 11
0.4776859525
 21
0.0169437025
 31
0.0
  0
LINE
  5
170
330
1B
100
AcDbEntity
  8
0
  6
Continuous
 62
     7
370
    25
100
AcDbLine
 10
0.5178762412
 20
-0.0400845506
 30
0.0
 11
0.4242461181
 21
-0.0400845506
 31
0.0
  0
LINE
  5
171
330
1B
100
AcDbEntity
  8
0
  6
Continuous
 62
     7
370
    25
100
AcDbLine
 10
0.5178762412
 20
-0.0259517018
 30
0.0
 11
0.5178762412
 21
-0.0400845506
 31
0.0
  0
LINE
  5
172
330
1B
100
AcDbEntity
  8
0
  6
Continuous
 62
     7
370
    25
100
AcDbLine
 10
0.4537539605
 20
-0.0259517018
 30
0.0
 11
0.5178762412
 21
-0.0259517018
 31
0.0
  0
LINE
  5
173
330
1B
100
AcDbEntity
  8
0
  6
Continuous
 62
     7
370
    25
100
AcDbLine
 10
0.4882303827
 20
0.0108433908
 30
0.0
 11
0.4537539605
 21
-0.0259517018
 31
0.0
  0
LINE
  5
174
330
1B
100
AcDbEntity
  8
0
  6
Continuous
 62
     7
370
    25
100
AcDbLine
 10
0.4419121791
 20
0.0553121787
 30
0.0
 11
0.4295459364
 21
0.0553121787
 31
0.0
  0
LINE
  5
175
330
1B
100
AcDbEntity
  8
0
  6
Continuous
 62
     7
370
    25
100
AcDbLine
 10
0.3076501157
 20
0.005847208
 30
0.0
 11
0.2546519327
 21
0.005847208
 31
0.0
  0
LINE
  5
176
330
1B
100
AcDbEntity
  8
0
  6
Continuous
 62
     7
370
    25
100
AcDbLine
 10
0.3076501157
 20
0.0199800568
 30
0.0
 11
0.3076501157
 21
0.005847208
 31
0.0
  0
LINE
  5
177
330
1B
100
AcDbEntity
  8
0
  6
Continuous
 62
     7
370
    25
100
AcDbLine
 10
0.2546519327
 20
0.0199800568
 30
0.0
 11
0.3076501157
 21
0.0199800568
 31
0.0
  0
LINE
  5
178
330
1B
100
AcDbEntity
  8
0
  6
Continuous
 62
     7
370
    25
100
AcDbLine
 10
0.2546519327
 20
0.005847208
 30
0.0
 11
0.2546519327
 21
0.0199800568
 31
0.0
  0
LINE
  5
179
330
1B
100
AcDbEntity
  8
0
  6
Continuous
 62
     7
370
    25
100
AcDbLine
 10
0.1080236267
 20
-0.0082856408
 30
0.0
 11
0.0426592011
 21
-0.0082856408
 31
0.0
  0
LINE
  5
17A
330
1B
100
AcDbEntity
  8
0
  6
Continuous
 62
     7
370
    25
100
AcDbLine
 10
0.1080236267
 20
-0.0400845506
 30
0.0
 11
0.1080236267
 21
-0.0082856408
 31
0.0
  0
LINE
  5
17B
330
1B
100
AcDbEntity
  8
0
  6
Continuous
 62
     7
370
    25
100
AcDbLine
 10
0.1203898693
 20
-0.0400845506
 30
0.0
 11
0.1080236267
 21
-0.0400845506
 31
0.0
  0
LINE
  5
17C
330
1B
100
AcDbEntity
  8
0
  6
Continuous
 62
     7
370
    25
100
AcDbLine
 10
0.1203898693
 20
-0.0082856408
 30
0.0
 11
0.1203898693
 21
-0.0400845506
 31
0.0
  0
LINE
  5
17D
330
1B
100
AcDbEntity
  8
0
  6
Continuous
 62
     7
370
    25
100
AcDbLine
 10
0.1362893242
 20
-0.0082856408
 30
0.0
 11
0.1203898693
 21
-0.0082856408
 31
0.0
  0
LINE
  5
17E
330
1B
100
AcDbEntity
  8
0
  6
Continuous
 62
     7
370
    25
100
AcDbLine
 10
0.1362893242
 20
0.005847208
 30
0.0
 11
0.1362893242
 21
-0.0082856408
 31
0.0
  0
LINE
  5
17F
330
1B
100
AcDbEntity
  8
0
  6
Continuous
 62
     7
370
    25
100
AcDbLine
 10
0.1203898693
 20
0.005847208
 30
0.0
 11
0.1362893242
 21
0.005847208
 31
0.0
  0
LINE
  5
180
330
1B
100
AcDbEntity
  8
0
  6
Continuous
 62
     7
370
    25
100
AcDbLine
 10
0.1203898693
 20
0.1012439372
 30
0.0
 11
0.1203898693
 21
0.005847208
 31
0.0
  0
LINE
  5
181
330
1B
100
AcDbEntity
  8
0
  6
Continuous
 62
     7
370
    25
100
AcDbLine
 10
0.1178779763
 20
0.1012439372
 30
0.0
 11
0.1203898693
 21
0.1012439372
 31
0.0
  0
LINE
  5
182
330
1B
100
AcDbEntity
  8
0
  6
Continuous
 62
     7
370
    25
100
AcDbLine
 10
0.0426592011
 20
-0.0082856408
 30
0.0
 11
0.1178779763
 21
0.1012439372
 31
0.0
  0
LINE
  5
183
330
1B
100
AcDbEntity
  8
0
  6
Continuous
 62
     7
370
    25
100
AcDbLine
 10
-0.1516674696
 20
-0.0400845506
 30
0.0
 11
-0.1640337123
 21
-0.0400845506
 31
0.0
  0
LINE
  5
184
330
1B
100
AcDbEntity
  8
0
  6
Continuous
 62
     7
370
    25
100
AcDbLine
 10
-0.1516674696
 20
0.0235132689
 30
0.0
 11
-0.1516674696
 21
-0.0400845506
 31
0.0
  0
LINE
  5
185
330
1B
100
AcDbEntity
  8
0
  6
Continuous
 62
     7
370
    25
100
AcDbLine
 10
-0.14181312
 20
0.0235132689
 30
0.0
 11
-0.1516674696
 21
0.0235132689
 31
0.0
  0
LINE
  5
186
330
1B
100
AcDbEntity
  8
0
  6
Continuous
 62
     7
370
    25
100
AcDbLine
 10
-0.1640337123
 20
0.097710725
 30
0.0
 11
-0.1370101597
 21
0.097710725
 31
0.0
  0
LINE
  5
187
330
1B
100
AcDbEntity
  8
0
  6
Continuous
 62
     7
370
    25
100
AcDbLine
 10
-0.1640337123
 20
-0.0400845506
 30
0.0
 11
-0.1640337123
 21
0.097710725
 31
0.0
  0
LINE
  5
188
330
1B
100
AcDbEntity
  8
0
  6
Continuous
 62
     7
370
    25
100
AcDbLine
 10
-0.3197158747
 20
-0.0065190347
 30
0.0
 11
-0.3088954123
 21
-0.0147171911
 31
0.0
  0
LINE
  5
189
330
1B
100
AcDbEntity
  8
0
  6
Continuous
 62
     7
370
    25
100
AcDbLine
 10
-0.3088954123
 20
0.0724261753
 30
0.0
 11
-0.3197158747
 21
0.0641452092
 31
0.0
  0
LINE
  5
18A
330
1B
100
AcDbEntity
  8
0
  6
Continuous
 62
     7
370
    25
100
AcDbLine
 10
2.45
 20
0.94
 30
0.0
 11
-2.45
 21
0.94
 31
0.0
  0
LINE
  5
18B
330
1B
100
AcDbEntity
  8
0
  6
Continuous
 62
     7
370
    25
100
AcDbLine
 10
2.075
 20
0.8733258593
 30
0.0
 11
2.075
 21
0.95
 31
0.0
  0
LINE
  5
18C
330
1B
100
AcDbEntity
  8
0
  6
Continuous
 62
     7
370
    25
100
AcDbLine
 10
2.075
 20
0.126044635
 30
0.0
 11
2.075
 21
0.5016741407
 31
0.0
  0
LINE
  5
18D
330
1B
100
AcDbEntity
  8
0
  6
Continuous
 62
     7
370
    25
100
AcDbLine
 10
2.075
 20
-0.5016741407
 30
0.0
 11
2.075
 21
-0.126044635
 31
0.0
  0
LINE
  5
18E
330
1B
100
AcDbEntity
  8
0
  6
Continuous
 62
     7
370
    25
100
AcDbLine
 10
2.075
 20
-0.95
 30
0.0
 11
2.075
 21
-0.8733258593
 31
0.0
  0
LINE
  5
18F
330
1B
100
AcDbEntity
  8
0
  6
Continuous
 62
     7
370
    25
100
AcDbLine
 10
-2.45
 20
-0.94
 30
0.0
 11
2.45
 21
-0.94
 31
0.0
  0
LINE
  5
190
330
1B
100
AcDbEntity
  8
0
  6
Continuous
 62
     7
370
    25
100
AcDbLine
 10
-2.075
 20
0.95
 30
0.0
 11
-2.075
 21
-0.95
 31
0.0
  0
LINE
  5
191
330
1B
100
AcDbEntity
  8
0
  6
Continuous
 62
     7
370
    25
100
AcDbLine
 10
-0.2682634721
 20
-0.0400845506
 30
0.0
 11
-0.2806297148
 21
-0.0400845506
 31
0.0
  0
LINE
  5
192
330
1B
100
AcDbEntity
  8
0
  6
Continuous
 62
     7
370
    25
100
AcDbLine
 10
-0.2682634721
 20
0.0235132689
 30
0.0
 11
-0.2682634721
 21
-0.0400845506
 31
0.0
  0
LINE
  5
193
330
1B
100
AcDbEntity
  8
0
  6
Continuous
 62
     7
370
    25
100
AcDbLine
 10
-0.2582158999
 20
0.0235132689
 30
0.0
 11
-0.2682634721
 21
0.0235132689
 31
0.0
  0
LINE
  5
194
330
1B
100
AcDbEntity
  8
0
  6
Continuous
 62
     7
370
    25
100
AcDbLine
 10
-0.2075915939
 20
-0.0400845506
 30
0.0
 11
-0.2582158999
 21
0.0235132689
 31
0.0
  0
LINE
  5
195
330
1B
100
AcDbEntity
  8
0
  6
Continuous
 62
     7
370
    25
100
AcDbLine
 10
-0.1922994099
 20
-0.0400845506
 30
0.0
 11
-0.2075915939
 21
-0.0400845506
 31
0.0
  0
LINE
  5
196
330
1B
100
AcDbEntity
  8
0
  6
Continuous
 62
     7
370
    25
100
AcDbLine
 10
-0.2429237159
 20
0.0235132689
 30
0.0
 11
-0.1922994099
 21
-0.0400845506
 31
0.0
  0
LINE
  5
197
330
1B
100
AcDbEntity
  8
0
  6
Continuous
 62
     7
370
    25
100
AcDbLine
 10
-0.2806297148
 20
0.097710725
 30
0.0
 11
-0.2530540977
 21
0.097710725
 31
0.0
  0
LINE
  5
198
330
1B
100
AcDbEntity
  8
0
  6
Continuous
 62
     7
370
    25
100
AcDbLine
 10
-0.2806297148
 20
-0.0400845506
 30
0.0
 11
-0.2806297148
 21
0.097710725
 31
0.0
  0
LINE
  5
199
330
1B
100
AcDbEntity
  8
0
  6
Continuous
 62
     7
370
    25
100
AcDbLine
 10
-0.0209386184
 20
0.0835778763
 30
0.0
 11
-0.0421378916
 21
0.0835778763
 31
0.0
  0
LINE
  5
19A
330
1B
100
AcDbEntity
  8
0
  6
Continuous
 62
     7
370
    25
100
AcDbLine
 10
-0.0209386184
 20
-0.0400845506
 30
0.0
 11
-0.0209386184
 21
0.0835778763
 31
0.0
  0
LINE
  5
19B
330
1B
100
AcDbEntity
  8
0
  6
Continuous
 62
     7
370
    25
100
AcDbLine
 10
-0.0085723758
 20
-0.0400845506
 30
0.0
 11
-0.0209386184
 21
-0.0400845506
 31
0.0
  0
LINE
  5
19C
330
1B
100
AcDbEntity
  8
0
  6
Continuous
 62
     7
370
    25
100
AcDbLine
 10
-0.0085723758
 20
0.097710725
 30
0.0
 11
-0.0085723758
 21
-0.0400845506
 31
0.0
  0
LINE
  5
19D
330
1B
100
AcDbEntity
  8
0
  6
Continuous
 62
     7
370
    25
100
AcDbLine
 10
-0.0340501481
 20
0.097710725
 30
0.0
 11
-0.0085723758
 21
0.097710725
 31
0.0
  0
LINE
  5
19E
330
1B
100
AcDbEntity
  8
0
  6
Continuous
 62
     7
370
    25
100
AcDbLine
 10
-0.0421378916
 20
0.0835778763
 30
0.0
 11
-0.0340501481
 21
0.097710725
 31
0.0
  0
LINE
  5
19F
330
1B
100
AcDbEntity
  8
0
  6
Continuous
 62
     7
370
    25
100
AcDbLine
 10
0.1486555669
 20
-0.0400845506
 30
0.0
 11
0.2020954013
 21
0.0169437025
 31
0.0
  0
LINE
  5
1A0
330
1B
100
AcDbEntity
  8
0
  6
Continuous
 62
     7
370
    25
100
AcDbLine
 10
0.2422856901
 20
-0.0400845506
 30
0.0
 11
0.1486555669
 21
-0.0400845506
 31
0.0
  0
LINE
  5
1A1
330
1B
100
AcDbEntity
  8
0
  6
Continuous
 62
     7
370
    25
100
AcDbLine
 10
0.2422856901
 20
-0.0259517018
 30
0.0
 11
0.2422856901
 21
-0.0400845506
 31
0.0
  0
LINE
  5
1A2
330
1B
100
AcDbEntity
  8
0
  6
Continuous
 62
     7
370
    25
100
AcDbLine
 10
0.1781634094
 20
-0.0259517018
 30
0.0
 11
0.2422856901
 21
-0.0259517018
 31
0.0
  0
LINE
  5
1A3
330
1B
100
AcDbEntity
  8
0
  6
Continuous
 62
     7
370
    25
100
AcDbLine
 10
0.2126398315
 20
0.0108433908
 30
0.0
 11
0.1781634094
 21
-0.0259517018
 31
0.0
  0
LINE
  5
1A4
330
1B
100
AcDbEntity
  8
0
  6
Continuous
 62
     7
370
    25
100
AcDbLine
 10
0.1663216279
 20
0.0553121787
 30
0.0
 11
0.1539553852
 21
0.0553121787
 31
0.0
  0
LINE
  5
1A5
330
1B
100
AcDbEntity
  8
0
  6
Continuous
 62
     7
370
    25
100
AcDbLine
 10
0.3606482986
 20
0.0835778763
 30
0.0
 11
0.3394490254
 21
0.0835778763
 31
0.0
  0
LINE
  5
1A6
330
1B
100
AcDbEntity
  8
0
  6
Continuous
 62
     7
370
    25
100
AcDbLine
 10
0.3606482986
 20
-0.0400845506
 30
0.0
 11
0.3606482986
 21
0.0835778763
 31
0.0
  0
LINE
  5
1A7
330
1B
100
AcDbEntity
  8
0
  6
Continuous
 62
     7
370
    25
100
AcDbLine
 10
0.3730145413
 20
-0.0400845506
 30
0.0
 11
0.3606482986
 21
-0.0400845506
 31
0.0
  0
LINE
  5
1A8
330
1B
100
AcDbEntity
  8
0
  6
Continuous
 62
     7
370
    25
100
AcDbLine
 10
0.3730145413
 20
0.097710725
 30
0.0
 11
0.3730145413
 21
-0.0400845506
 31
0.0
  0
LINE
  5
1A9
330
1B
100
AcDbEntity
  8
0
  6
Continuous
 62
     7
370
    25
100
AcDbLine
 10
0.3475367689
 20
0.097710725
 30
0.0
 11
0.3730145413
 21
0.097710725
 31
0.0
  0
LINE
  5
1AA
330
1B
100
AcDbEntity
  8
0
  6
Continuous
 62
     7
370
    25
100
AcDbLine
 10
0.3394490254
 20
0.0835778763
 30
0.0
 11
0.3475367689
 21
0.097710725
 31
0.0
  0
LINE
  5
1AB
330
1B
100
AcDbEntity
  8
0
  6
Continuous
 62
     7
370
    25
100
AcDbLine
 10
-0.1516674696
 20
0.0376461177
 30
0.0
 11
-0.1275422551
 21
0.0373424823
 31
0.0
  0
LINE
  5
1AC
330
1B
100
AcDbEntity
  8
0
  6
Continuous
 62
     7
370
    25
100
AcDbLine
 10
-0.1516674696
 20
0.0835778763
 30
0.0
 11
-0.1516674696
 21
0.0376461177
 31
0.0
  0
LINE
  5
1AD
330
1B
100
AcDbEntity
  8
0
  6
Continuous
 62
     7
370
    25
100
AcDbLine
 10
-0.1264657295
 20
0.0835778763
 30
0.0
 11
-0.1516674696
 21
0.0835778763
 31
0.0
  0
LINE
  5
1AE
330
1B
100
AcDbEntity
  8
0
  6
Continuous
 62
     7
370
    25
100
AcDbLine
 10
-0.2682634721
 20
0.0376461177
 30
0.0
 11
-0.2430341287
 21
0.0374528952
 31
0.0
  0
LINE
  5
1AF
330
1B
100
AcDbEntity
  8
0
  6
Continuous
 62
     7
370
    25
100
AcDbLine
 10
-0.2682634721
 20
0.0835778763
 30
0.0
 11
-0.2682634721
 21
0.0376461177
 31
0.0
  0
LINE
  5
1B0
330
1B
100
AcDbEntity
  8
0
  6
Continuous
 62
     7
370
    25
100
AcDbLine
 10
-0.2424268579
 20
0.0835778763
 30
0.0
 11
-0.2682634721
 21
0.0835778763
 31
0.0
  0
LINE
  5
1B1
330
1B
100
AcDbEntity
  8
0
  6
Continuous
 62
     7
370
    25
100
AcDbLine
 10
-2.45
 20
-0.94
 30
0.0
 11
-2.45
 21
0.94
 31
0.0
  0
LINE
  5
1B2
330
1B
100
AcDbEntity
  8
0
  6
Continuous
 62
     7
370
    25
100
AcDbLine
 10
2.44
 20
-0.95
 30
0.0
 11
-2.44
 21
-0.95
 31
0.0
  0
LINE
  5
1B3
330
1B
100
AcDbEntity
  8
0
  6
Continuous
 62
     7
370
    25
100
AcDbLine
 10
0.1080236267
 20
0.005847208
 30
0.0
 11
0.1080236267
 21
0.0656909895
 31
0.0
  0
LINE
  5
1B4
330
1B
100
AcDbEntity
  8
0
  6
Continuous
 62
     7
370
    25
100
AcDbLine
 10
0.0669500349
 20
0.005847208
 30
0.0
 11
0.1080236267
 21
0.005847208
 31
0.0
  0
LINE
  5
1B5
330
1B
100
AcDbEntity
  8
0
  6
Continuous
 62
     7
370
    25
100
AcDbLine
 10
0.1080236267
 20
0.0656909895
 30
0.0
 11
0.0669500349
 21
0.005847208
 31
0.0
  0
LINE
  5
1B6
330
1B
100
AcDbEntity
  8
0
  6
Continuous
 62
     7
370
    25
100
AcDbLine
 10
-2.44
 20
0.95
 30
0.0
 11
2.44
 21
0.95
 31
0.0
  0
LINE
  5
1B7
330
1B
100
AcDbEntity
  8
0
  6
Continuous
 62
     7
370
    25
100
AcDbLine
 10
2.45
 20
0.94
 30
0.0
 11
2.45
 21
-0.94
 31
0.0
  0
ARC
  5
1B8
330
1B
100
AcDbEntity
  8
0
  6
Continuous
 62
     7
370
    25
100
AcDbCircle
 10
2.05
 20
0.6875
 30
0.0
 40
0.1874999999999996
100
AcDbArc
 50
82.3377443392
 51
277.6622556608
  0
ARC
  5
1B9
330
1B
100
AcDbEntity
  8
0
  6
Continuous
 62
     7
370
    25
100
AcDbCircle
 10
2.05
 20
0.0
 30
0.0
 40
0.1284999999999998
100
AcDbArc
 50
78.7814152155
 51
281.2185847845
  0
ARC
  5
1BA
330
1B
100
AcDbEntity
  8
0
  6
Continuous
 62
     7
370
    25
100
AcDbCircle
 10
2.05
 20
-0.6875
 30
0.0
 40
0.1874999999999996
100
AcDbArc
 50
82.3377443392
 51
277.6622556608
  0
ARC
  5
1BB
330
1B
100
AcDbEntity
  8
0
  6
Continuous
 62
     7
370
    25
100
AcDbCircle
 10
-2.44
 20
-0.94
 30
0.0
 40
0.0100000000000002
100
AcDbArc
 50
180.0
 51
270.0
  0
ARC
  5
1BC
330
1B
100
AcDbEntity
  8
0
  6
Continuous
 62
     7
370
    25
100
AcDbCircle
 10
-2.44
 20
0.94
 30
0.0
 40
0.0099999999999999
100
AcDbArc
 50
90.0
 51
180.0
  0
ARC
  5
1BD
330
1B
100
AcDbEntity
  8
0
  6
Continuous
 62
     7
370
    25
100
AcDbCircle
 10
2.44
 20
0.94
 30
0.0
 40
0.0099999999999999
100
AcDbArc
 50
0.0
 51
90.0
  0
ARC
  5
1BE
330
1B
100
AcDbEntity
  8
0
  6
Continuous
 62
     7
370
    25
100
AcDbCircle
 10
2.44
 20
-0.94
 30
0.0
 40
0.0100000000000011
100
AcDbArc
 50
270.0
 51
360.0
  0
VIEWPORT
  5
26C
330
1B
100
AcDbEntity
  8
0
100
AcDbViewport
 10
0.0
 20
0.0
 30
0.0
 40
8.4
 41
6.4
 68
     1
 69
     1
 12
0.0
 22
0.0
 13
0.0
 23
0.0
 14
0.5
 24
0.5
 15
0.5
 25
0.5
 16
0.0
 26
0.0
 36
1.0
 17
0.0
 27
0.0
 37
0.0
 42
50.0
 43
0.0
 44
0.0
 45
5.1
 50
0.0
 51
0.0
 72
   100
 90
   557152
  1

281
     0
 71
     1
 74
     0
110
0.0
120
0.0
130
0.0
111
1.0
121
0.0
131
0.0
112
0.0
122
1.0
132
0.0
 79
     0
146
0.0
  0
ENDBLK
  5
1D
330
1B
100
AcDbEntity
  8
0
100
AcDbBlockEnd
  0
BLOCK
  5
24
330
23
100
AcDbEntity
  8
0
100
AcDbBlockBegin
  2
*Paper_Space1
 70
     0
 10
0.0
 20
0.0
 30
0.0
  3
*Paper_Space1
  1

  0
SPLINE
  5
1CB
330
23
100
AcDbEntity
  8
0
  6
Continuous
 62
     7
370
    25
100
AcDbSpline
210
0.0
220
0.0
230
1.0
 70
     8
 71
     3
 72
    38
 73
    34
 74
     0
 42
0.000000001
 43
0.00000001
 40
0.0
 40
0.0
 40
0.0
 40
0.0
 40
0.0625000000000001
 40
0.0625000000000001
 40
0.1250000000000002
 40
0.1250000000000002
 40
0.1875000000000004
 40
0.1875000000000004
 40
0.2500000000000005
 40
0.2500000000000005
 40
0.3125000000000006
 40
0.3125000000000006
 40
0.3750000000000008
 40
0.3750000000000008
 40
0.4375000000000009
 40
0.4375000000000009
 40
0.500000000000001
 40
0.500000000000001
 40
0.5625000000000011
 40
0.5625000000000011
 40
0.6250000000000012
 40
0.6250000000000012
 40
0.687500000000001
 40
0.687500000000001
 40
0.7500000000000008
 40
0.7500000000000008
 40
0.8125000000000007
 40
0.8125000000000007
 40
0.8750000000000004
 40
0.8750000000000004
 40
0.9375000000000002
 40
0.9375000000000002
 40
1.0
 40
1.0
 40
1.0
 40
1.0
 10
-2.5
 20
-0.873325859341481
 30
0.0
 10
-2.500000000000001
 20
-0.8717965255540083
 30
0.0
 10
-2.499485073608579
 20
-0.8692608429533528
 30
0.0
 10
-2.497588511418474
 20
-0.8622850656124313
 30
0.0
 10
-2.496187739247293
 20
-0.8577896938907207
 30
0.0
 10
-2.492746523450238
 20
-0.8470783052525133
 30
0.0
 10
-2.490726818696841
 20
-0.8409197530768651
 30
0.0
 10
-2.486326735055673
 20
-0.8270337980564735
 30
0.0
 10
-2.483925668215417
 20
-0.8192330762519441
 30
0.0
 10
-2.479171067487133
 20
-0.8025371626428268
 30
0.0
 10
-2.476803380297885
 20
-0.7936062098112104
 30
0.0
 10
-2.472351115257803
 20
-0.774519131676948
 30
0.0
 10
-2.470265862975233
 20
-0.7643142881169783
 30
0.0
 10
-2.466806368307952
 20
-0.743431253906512
 30
0.0
 10
-2.465406878891738
 20
-0.7326594988848124
 30
0.0
 10
-2.463478218155335
 20
-0.710405641214178
 30
0.0
 10
-2.462966215226745
 20
-0.6989214667743845
 30
0.0
 10
-2.462959114999923
 20
-0.6763235811678585
 30
0.0
 10
-2.463448303904813
 20
-0.665072213011996
 30
0.0
 10
-2.465367602794685
 20
-0.6426656712259793
 30
0.0
 10
-2.466781179581151
 20
-0.6317427699459447
 30
0.0
 10
-2.470242566086216
 20
-0.6108046738914058
 30
0.0
 10
-2.47231549835046
 20
-0.6006440538739433
 30
0.0
 10
-2.476782654995222
 20
-0.5814722778930267
 30
0.0
 10
-2.479154435954052
 20
-0.5725243022208287
 30
0.0
 10
-2.483907469121625
 20
-0.5558277899616018
 30
0.0
 10
-2.486309640071216
 20
-0.5480211821943023
 30
0.0
 10
-2.490713246636519
 20
-0.5341220540776634
 30
0.0
 10
-2.492727676433115
 20
-0.5279791194424237
 30
0.0
 10
-2.496154713910186
 20
-0.5173143245435669
 30
0.0
 10
-2.497571508421994
 20
-0.512773487696664
 30
0.0
 10
-2.499484480724292
 20
-0.5057452868905221
 30
0.0
 10
-2.500000000000001
 20
-0.5032039618739937
 30
0.0
 10
-2.5
 20
-0.5016741406585189
 30
0.0
  0
SPLINE
  5
1CD
330
23
100
AcDbEntity
  8
0
  6
Continuous
 62
     7
370
    25
100
AcDbSpline
210
0.0
220
0.0
230
1.0
 70
     8
 71
     3
 72
    36
 73
    32
 74
     0
 42
0.000000001
 43
0.00000001
 40
0.0
 40
0.0
 40
0.0
 40
0.0
 40
0.1250000000000017
 40
0.1250000000000017
 40
0.1875000000000016
 40
0.1875000000000016
 40
0.2500000000000016
 40
0.2500000000000016
 40
0.3125000000000014
 40
0.3125000000000014
 40
0.3750000000000014
 40
0.3750000000000014
 40
0.4375000000000013
 40
0.4375000000000013
 40
0.5000000000000012
 40
0.5000000000000012
 40
0.5625000000000011
 40
0.5625000000000011
 40
0.6250000000000009
 40
0.6250000000000009
 40
0.6875000000000008
 40
0.6875000000000008
 40
0.7500000000000007
 40
0.7500000000000007
 40
0.8125000000000006
 40
0.8125000000000006
 40
0.8750000000000003
 40
0.8750000000000003
 40
0.9375000000000002
 40
0.9375000000000002
 40
1.0
 40
1.0
 40
1.0
 40
1.0
 10
-2.5
 20
-0.126044634951274
 30
0.0
 10
-2.500000000000002
 20
-0.1231401912664326
 30
0.0
 10
-2.499141391037691
 20
-0.1178137558630705
 30
0.0
 10
-2.497038716032801
 20
-0.1063756455983485
 30
0.0
 10
-2.496220711540215
 20
-0.1020738542040116
 30
0.0
 10
-2.494459152884109
 20
-0.0925248634482637
 30
0.0
 10
-2.493507990783204
 20
-0.0872349931824531
 30
0.0
 10
-2.491618203676226
 20
-0.0758508502010461
 30
0.0
 10
-2.490690859633036
 20
-0.0698261638403548
 30
0.0
 10
-2.488974465627047
 20
-0.0571165243920698
 30
0.0
 10
-2.488179466410564
 20
-0.0503701820621799
 30
0.0
 10
-2.486858003173967
 20
-0.0364608036118865
 30
0.0
 10
-2.486335851304431
 20
-0.0293652383831088
 30
0.0
 10
-2.485623917791994
 20
-0.0148940211588946
 30
0.0
 10
-2.485434608237262
 20
-0.0074466625320491
 30
0.0
 10
-2.485433620263601
 20
0.0073870532242664
 30
0.0
 10
-2.485617905095597
 20
0.0147181981668447
 30
0.0
 10
-2.486325830852194
 20
0.0292139652590424
 30
0.0
 10
-2.48685708819506
 20
0.0364470667876158
 30
0.0
 10
-2.488175283735288
 20
0.0503302464609974
 30
0.0
 10
-2.488957904212291
 20
0.0569838423744828
 30
0.0
 10
-2.490677144437432
 20
0.0697344768810367
 30
0.0
 10
-2.491622506560613
 20
0.07587663973616
 30
0.0
 10
-2.493502836539442
 20
0.0872040749695897
 30
0.0
 10
-2.494441746223769
 20
0.0924289990690448
 30
0.0
 10
-2.496208893495821
 20
0.1020112737262902
 30
0.0
 10
-2.497041755415601
 20
0.1063925687016241
 30
0.0
 10
-2.498431847718598
 20
0.1139536013498168
 30
0.0
 10
-2.498997036066929
 20
0.117175136148495
 30
0.0
 10
-2.499781936623034
 20
0.1224934715333771
 30
0.0
 10
-2.500000000000002
 20
0.1245923882845976
 30
0.0
 10
-2.5
 20
0.1260446349512741
 30
0.0
  0
SPLINE
  5
1CF
330
23
100
AcDbEntity
  8
0
  6
Continuous
 62
     7
370
    25
100
AcDbSpline
210
0.0
220
0.0
230
1.0
 70
     8
 71
     3
 72
    38
 73
    34
 74
     0
 42
0.000000001
 43
0.00000001
 40
0.0
 40
0.0
 40
0.0
 40
0.0
 40
0.0625000000000004
 40
0.0625000000000004
 40
0.1250000000000009
 40
0.1250000000000009
 40
0.1875000000000013
 40
0.1875000000000013
 40
0.2500000000000017
 40
0.2500000000000017
 40
0.3125000000000022
 40
0.3125000000000022
 40
0.3750000000000026
 40
0.3750000000000026
 40
0.4375000000000023
 40
0.4375000000000023
 40
0.500000000000002
 40
0.500000000000002
 40
0.5625000000000018
 40
0.5625000000000018
 40
0.6250000000000016
 40
0.6250000000000016
 40
0.6875000000000013
 40
0.6875000000000013
 40
0.750000000000001
 40
0.750000000000001
 40
0.8125000000000008
 40
0.8125000000000008
 40
0.8750000000000006
 40
0.8750000000000006
 40
0.9375000000000003
 40
0.9375000000000003
 40
1.0
 40
1.0
 40
1.0
 40
1.0
 10
-2.5
 20
0.5016741406585189
 30
0.0
 10
-2.500000000000001
 20
0.5032034744459919
 30
0.0
 10
-2.499485073608579
 20
0.5057391570466472
 30
0.0
 10
-2.497588511418473
 20
0.5127149343875684
 30
0.0
 10
-2.496187739247293
 20
0.5172103061092792
 30
0.0
 10
-2.492746523450238
 20
0.5279216947474867
 30
0.0
 10
-2.490726818696841
 20
0.5340802469231347
 30
0.0
 10
-2.486326735055673
 20
0.547966201943527
 30
0.0
 10
-2.483925668215418
 20
0.555766923748056
 30
0.0
 10
-2.479171067487132
 20
0.572462837357173
 30
0.0
 10
-2.476803380297885
 20
0.5813937901887897
 30
0.0
 10
-2.472351115257803
 20
0.600480868323052
 30
0.0
 10
-2.470265862975232
 20
0.6106857118830215
 30
0.0
 10
-2.466806368307952
 20
0.6315687460934879
 30
0.0
 10
-2.465406878891738
 20
0.6423405011151875
 30
0.0
 10
-2.463478218155333
 20
0.6645943587858216
 30
0.0
 10
-2.462966215226745
 20
0.6760785332256155
 30
0.0
 10
-2.462959114999923
 20
0.6986764188321416
 30
0.0
 10
-2.463448303904814
 20
0.7099277869880041
 30
0.0
 10
-2.465367602794687
 20
0.7323343287740212
 30
0.0
 10
-2.466781179581152
 20
0.7432572300540555
 30
0.0
 10
-2.470242566086216
 20
0.7641953261085944
 30
0.0
 10
-2.472315498350459
 20
0.7743559461260567
 30
0.0
 10
-2.476782654995222
 20
0.7935277221069732
 30
0.0
 10
-2.479154435954052
 20
0.8024756977791707
 30
0.0
 10
-2.483907469121625
 20
0.8191722100383981
 30
0.0
 10
-2.486309640071217
 20
0.8269788178056979
 30
0.0
 10
-2.490713246636519
 20
0.840877945922337
 30
0.0
 10
-2.492727676433115
 20
0.8470208805575765
 30
0.0
 10
-2.496154713910186
 20
0.8576856754564337
 30
0.0
 10
-2.497571508421994
 20
0.862226512303336
 30
0.0
 10
-2.499484480724291
 20
0.8692547131094781
 30
0.0
 10
-2.500000000000001
 20
0.8717960381260064
 30
0.0
 10
-2.5
 20
0.8733258593414811
 30
0.0
  0
SPLINE
  5
1EE
330
23
100
AcDbEntity
  8
0
  6
Continuous
 62
     7
370
    25
100
AcDbSpline
210
0.0
220
0.0
230
1.0
 70
     8
 71
     3
 72
    19
 73
    15
 74
     0
 42
0.000000001
 43
0.00000001
 40
0.0
 40
0.0
 40
0.0
 40
0.0
 40
0.0887187362919548
 40
0.173103746034226
 40
0.2573815568616883
 40
0.3876693565616203
 40
0.4536387113227787
 40
0.5195649820473968
 40
0.6307252813891107
 40
0.7001613579161975
 40
0.7696897123294625
 40
0.8651032993387534
 40
0.9606564420729601
 40
1.0
 40
1.0
 40
1.0
 40
1.0
 10
-1.525
 20
-0.6520243605868532
 30
0.0
 10
-1.517724998404792
 20
-0.6466879312381786
 30
0.0
 10
-1.503530363977276
 20
-0.6362757460638694
 30
0.0
 10
-1.484633513046885
 20
-0.6144927398536558
 30
0.0
 10
-1.465103127367777
 20
-0.5855666246604678
 30
0.0
 10
-1.451319603431089
 20
-0.5525310129652587
 30
0.0
 10
-1.445216243411577
 20
-0.5184989880006282
 30
0.0
 10
-1.444136556728328
 20
-0.4860181871660239
 30
0.0
 10
-1.449900005995057
 20
-0.4534886211335056
 30
0.0
 10
-1.461229475850092
 20
-0.4240096178657312
 30
0.0
 10
-1.474801608478454
 20
-0.399014933290625
 30
0.0
 10
-1.492919691128651
 20
-0.375450700559758
 30
0.0
 10
-1.51050924337836
 20
-0.3572417865788868
 30
0.0
 10
-1.521727978211411
 20
-0.3499097497277754
 30
0.0
 10
-1.525
 20
-0.3477713103503789
 30
0.0
  0
SPLINE
  5
1EF
330
23
100
AcDbEntity
  8
0
  6
Continuous
 62
     7
370
    25
100
AcDbSpline
210
0.0
220
0.0
230
1.0
 70
     8
 71
     3
 72
    19
 73
    15
 74
     0
 42
0.000000001
 43
0.00000001
 40
0.0
 40
0.0
 40
0.0
 40
0.0
 40
0.0887187362919552
 40
0.1731037460342258
 40
0.2573815568616877
 40
0.3876693565616193
 40
0.4536387113227781
 40
0.5195649820473964
 40
0.6307252813891104
 40
0.7001613579161967
 40
0.7696897123294618
 40
0.8651032993387527
 40
0.960656442072959
 40
1.0
 40
1.0
 40
1.0
 40
1.0
 10
-1.525
 20
0.3479756394131461
 30
0.0
 10
-1.517724998404792
 20
0.3533120687618209
 30
0.0
 10
-1.503530363977276
 20
0.3637242539361302
 30
0.0
 10
-1.484633513046885
 20
0.3855072601463436
 30
0.0
 10
-1.465103127367777
 20
0.4144333753395317
 30
0.0
 10
-1.451319603431089
 20
0.4474689870347404
 30
0.0
 10
-1.445216243411577
 20
0.4815010119993709
 30
0.0
 10
-1.444136556728329
 20
0.5139818128339749
 30
0.0
 10
-1.449900005995056
 20
0.5465113788664935
 30
0.0
 10
-1.461229475850092
 20
0.5759903821342681
 30
0.0
 10
-1.474801608478454
 20
0.6009850667093738
 30
0.0
 10
-1.49291969112865
 20
0.6245492994402411
 30
0.0
 10
-1.51050924337836
 20
0.6427582134211122
 30
0.0
 10
-1.521727978211412
 20
0.6500902502722234
 30
0.0
 10
-1.525
 20
0.6522286896496203
 30
0.0
  0
LINE
  5
200
330
23
100
AcDbEntity
  8
0
  6
Continuous
 62
     7
370
    25
100
AcDbLine
 10
-1.4
 20
-0.94
 30
0.0
 11
2.5
 21
-0.94
 31
0.0
  0
LINE
  5
201
330
23
100
AcDbEntity
  8
0
  6
Continuous
 62
     7
370
    25
100
AcDbLine
 10
1.375
 20
-0.95
 30
0.0
 11
1.375
 21
0.95
 31
0.0
  0
LINE
  5
202
330
23
100
AcDbEntity
  8
0
  6
Continuous
 62
     7
370
    25
100
AcDbLine
 10
-1.525
 20
0.94
 30
0.0
 11
-2.5
 21
0.94
 31
0.0
  0
LINE
  5
203
330
23
100
AcDbEntity
  8
0
  6
Continuous
 62
     7
370
    25
100
AcDbLine
 10
-2.5
 20
-0.94
 30
0.0
 11
-1.525
 21
-0.94
 31
0.0
  0
LINE
  5
204
330
23
100
AcDbEntity
  8
0
  6
Continuous
 62
     7
370
    25
100
AcDbLine
 10
-2.125
 20
0.95
 30
0.0
 11
-2.125
 21
-0.95
 31
0.0
  0
LINE
  5
205
330
23
100
AcDbEntity
  8
0
  6
Continuous
 62
     7
370
    25
100
AcDbLine
 10
2.49
 20
-0.95
 30
0.0
 11
-2.49
 21
-0.95
 31
0.0
  0
LINE
  5
206
330
23
100
AcDbEntity
  8
0
  6
Continuous
 62
     7
370
    25
100
AcDbLine
 10
-2.5
 20
-0.94
 30
0.0
 11
-2.5
 21
0.94
 31
0.0
  0
LINE
  5
207
330
23
100
AcDbEntity
  8
0
  6
Continuous
 62
     7
370
    25
100
AcDbLine
 10
2.5
 20
0.94
 30
0.0
 11
-1.4
 21
0.94
 31
0.0
  0
LINE
  5
208
330
23
100
AcDbEntity
  8
0
  6
Continuous
 62
     7
370
    25
100
AcDbLine
 10
-1.4
 20
-0.94
 30
0.0
 11
-1.4
 21
0.94
 31
0.0
  0
LINE
  5
209
330
23
100
AcDbEntity
  8
0
  6
Continuous
 62
     7
370
    25
100
AcDbLine
 10
-1.525
 20
-0.94
 30
0.0
 11
-1.525
 21
0.94
 31
0.0
  0
LINE
  5
20A
330
23
100
AcDbEntity
  8
0
  6
Continuous
 62
     7
370
    25
100
AcDbLine
 10
-2.49
 20
0.95
 30
0.0
 11
2.49
 21
0.95
 31
0.0
  0
LINE
  5
20B
330
23
100
AcDbEntity
  8
0
  6
Continuous
 62
     7
370
    25
100
AcDbLine
 10
1.75
 20
0.94
 30
0.0
 11
1.75
 21
-0.94
 31
0.0
  0
LINE
  5
20C
330
23
100
AcDbEntity
  8
0
  6
Continuous
 62
     7
370
    25
100
AcDbLine
 10
-1.4
 20
0.875
 30
0.0
 11
-1.525
 21
0.875
 31
0.0
  0
LINE
  5
20D
330
23
100
AcDbEntity
  8
0
  6
Continuous
 62
     7
370
    25
100
AcDbLine
 10
-1.525
 20
-0.875
 30
0.0
 11
-1.4
 21
-0.875
 31
0.0
  0
LINE
  5
20E
330
23
100
AcDbEntity
  8
0
  6
Continuous
 62
     7
370
    25
100
AcDbLine
 10
2.125
 20
0.95
 30
0.0
 11
2.125
 21
-0.95
 31
0.0
  0
LINE
  5
20F
330
23
100
AcDbEntity
  8
0
  6
Continuous
 62
     7
370
    25
100
AcDbLine
 10
2.5
 20
-0.94
 30
0.0
 11
2.5
 21
0.94
 31
0.0
  0
LINE
  5
210
330
23
100
AcDbEntity
  8
0
  6
Continuous
 62
     8
370
    25
100
AcDbLine
 10
-1.3993969262
 20
0.9434202014
 30
0.0
 11
-1.5256030738
 21
0.9434202014
 31
0.0
  0
LINE
  5
211
330
23
100
AcDbEntity
  8
0
  6
Continuous
 62
     8
370
    25
100
AcDbLine
 10
-1.5256030738
 20
-0.9434202014
 30
0.0
 11
-1.3993969262
 21
-0.9434202014
 31
0.0
  0
ARC
  5
212
330
23
100
AcDbEntity
  8
0
  6
Continuous
 62
     7
370
    25
100
AcDbCircle
 10
-1.39
 20
-0.94
 30
0.0
 40
0.0099999999999998
100
AcDbArc
 50
180.0
 51
270.0
  0
ARC
  5
213
330
23
100
AcDbEntity
  8
0
  6
Continuous
 62
     7
370
    25
100
AcDbCircle
 10
-2.49
 20
0.94
 30
0.0
 40
0.0099999999999998
100
AcDbArc
 50
90.0
 51
180.0
  0
ARC
  5
214
330
23
100
AcDbEntity
  8
0
  6
Continuous
 62
     7
370
    25
100
AcDbCircle
 10
-2.49
 20
-0.94
 30
0.0
 40
0.0099999999999999
100
AcDbArc
 50
180.0
 51
270.0
  0
ARC
  5
215
330
23
100
AcDbEntity
  8
0
  6
Continuous
 62
     7
370
    25
100
AcDbCircle
 10
-1.535
 20
-0.94
 30
0.0
 40
0.0099999999999996
100
AcDbArc
 50
270.0
 51
0.0
  0
ARC
  5
216
330
23
100
AcDbEntity
  8
0
  6
Continuous
 62
     7
370
    25
100
AcDbCircle
 10
-1.535
 20
0.94
 30
0.0
 40
0.0099999999999998
100
AcDbArc
 50
360.0
 51
90.0
  0
ARC
  5
217
330
23
100
AcDbEntity
  8
0
  6
Continuous
 62
     7
370
    25
100
AcDbCircle
 10
-1.39
 20
0.94
 30
0.0
 40
0.0099999999999999
100
AcDbArc
 50
90.0
 51
180.0
  0
ARC
  5
218
330
23
100
AcDbEntity
  8
0
  6
Continuous
 62
     7
370
    25
100
AcDbCircle
 10
1.74
 20
0.94
 30
0.0
 40
0.0100000000000005
100
AcDbArc
 50
0.0
 51
90.0
  0
ARC
  5
219
330
23
100
AcDbEntity
  8
0
  6
Continuous
 62
     7
370
    25
100
AcDbCircle
 10
1.74
 20
-0.94
 30
0.0
 40
0.0099999999999987
100
AcDbArc
 50
270.0
 51
0.0
  0
ARC
  5
21A
330
23
100
AcDbEntity
  8
0
  6
Continuous
 62
     7
370
    25
100
AcDbCircle
 10
2.49
 20
0.94
 30
0.0
 40
0.0100000000000009
100
AcDbArc
 50
0.0
 51
90.0
  0
ARC
  5
21B
330
23
100
AcDbEntity
  8
0
  6
Continuous
 62
     7
370
    25
100
AcDbCircle
 10
2.49
 20
-0.94
 30
0.0
 40
0.0100000000000007
100
AcDbArc
 50
270.0
 51
0.0
  0
VIEWPORT
  5
26E
330
23
100
AcDbEntity
  8
0
100
AcDbViewport
 10
0.0
 20
0.0
 30
0.0
 40
8.4
 41
6.4
 68
     1
 69
     1
 12
0.0
 22
0.0
 13
0.0
 23
0.0
 14
0.5
 24
0.5
 15
0.5
 25
0.5
 16
0.0
 26
0.0
 36
1.0
 17
0.0
 27
0.0
 37
0.0
 42
50.0
 43
0.0
 44
0.0
 45
5.1
 50
0.0
 51
0.0
 72
   100
 90
   557152
  1

281
     0
 71
     1
 74
     0
110
0.0
120
0.0
130
0.0
111
1.0
121
0.0
131
0.0
112
0.0
122
1.0
132
0.0
 79
     0
146
0.0
  0
ENDBLK
  5
25
330
23
100
AcDbEntity
  8
0
100
AcDbBlockEnd
  0
ENDSEC
  0
SECTION
  2
ENTITIES
  0
SPLINE
  5
A2
330
1F
100
AcDbEntity
  8
0
  6
Continuous
 62
     7
370
    25
100
AcDbSpline
210
0.0
220
0.0
230
1.0
 70
     8
 71
     3
 72
    10
 73
     6
 74
     0
 42
0.000000001
 43
0.00000001
 40
0.0
 40
0.0
 40
0.0
 40
0.0
 40
0.5
 40
0.5
 40
1.0
 40
1.0
 40
1.0
 40
1.0
 10
1.393315025606251
 20
-1.525603073792141
 30
0.0
 10
1.393613074932383
 20
-1.526334447233334
 30
0.0
 10
1.394158880714385
 20
-1.527673997616453
 30
0.0
 10
1.395526131577594
 20
-1.531032727670529
 30
0.0
 10
1.396338555247425
 20
-1.53302993893097
 30
0.0
 10
1.397139213185931
 20
-1.535
 30
0.0
  0
SPLINE
  5
A3
330
1F
100
AcDbEntity
  8
0
  6
Continuous
 62
     7
370
    25
100
AcDbSpline
210
0.0
220
0.0
230
1.0
 70
     8
 71
     3
 72
     8
 73
     4
 74
     0
 42
0.000000001
 43
0.00000001
 40
0.0
 40
0.0
 40
0.0
 40
0.0
 40
1.0
 40
1.0
 40
1.0
 40
1.0
 10
1.393315025606251
 20
-1.525603073792141
 30
0.0
 10
1.39314327932103
 20
-1.525181631230051
 30
0.0
 10
1.392724332905466
 20
-1.525000000000011
 30
0.0
 10
1.39215101305491
 20
-1.524999999999999
 30
0.0
  0
SPLINE
  5
A6
330
1F
100
AcDbEntity
  8
0
  6
Continuous
 62
     7
370
    25
100
AcDbSpline
210
0.0
220
0.0
230
1.0
 70
     8
 71
     3
 72
     8
 73
     4
 74
     0
 42
0.000000001
 43
0.00000001
 40
0.0
 40
0.0
 40
0.0
 40
0.0
 40
1.0
 40
1.0
 40
1.0
 40
1.0
 10
1.509539480487232
 20
-1.4
 30
0.0
 10
1.510140377680556
 20
-1.4
 30
0.0
 10
1.510874524989224
 20
-1.399776141756234
 30
0.0
 10
1.511700536729045
 20
-1.399396926208065
 30
0.0
  0
SPLINE
  5
A7
330
1F
100
AcDbEntity
  8
0
  6
Continuous
 62
     7
370
    25
100
AcDbSpline
210
0.0
220
0.0
230
1.0
 70
     8
 71
     3
 72
    12
 73
     8
 74
     0
 42
0.000000001
 43
0.00000001
 40
0.0
 40
0.0
 40
0.0
 40
0.0
 40
0.2500000000000066
 40
0.2500000000000066
 40
0.5000000000000132
 40
0.5000000000000132
 40
1.0
 40
1.0
 40
1.0
 40
1.0
 10
1.511700536729188
 20
-1.39939692620786
 30
0.0
 10
1.512917826774387
 20
-1.398838077841042
 30
0.0
 10
1.514506408876575
 20
-1.398107992597031
 30
0.0
 10
1.517816302653386
 20
-1.396583962204869
 30
0.0
 10
1.519531435115592
 20
-1.395792974476977
 30
0.0
 10
1.524777398696278
 20
-1.393369331745862
 30
0.0
 10
1.528432464955147
 20
-1.391674814589607
 30
0.0
 10
1.532032304170444
 20
-1.390000000000001
 30
0.0
  0
SPLINE
  5
AB
330
1F
100
AcDbEntity
  8
0
  6
Continuous
 62
     7
370
    25
100
AcDbSpline
210
0.0
220
0.0
230
1.0
 70
    24
 71
     3
 72
     8
 73
     4
 74
     0
 42
0.000000001
 43
0.00000001
 40
0.0
 40
0.0
 40
0.0
 40
0.0
 40
1.0
 40
1.0
 40
1.0
 40
1.0
 10
1.509539480487232
 20
-1.4
 30
0.0
 10
1.499123296811122
 20
-1.4
 30
0.0
 10
1.488669159712728
 20
-1.4
 30
0.0
 10
1.478177171388973
 20
-1.4
 30
0.0
  0
SPLINE
  5
AD
330
1F
100
AcDbEntity
  8
0
  6
Continuous
 62
     7
370
    25
100
AcDbSpline
210
0.0
220
0.0
230
1.0
 70
    24
 71
     3
 72
     8
 73
     4
 74
     0
 42
0.000000001
 43
0.00000001
 40
0.0
 40
0.0
 40
0.0
 40
0.0
 40
1.0
 40
1.0
 40
1.0
 40
1.0
 10
1.358080538854565
 20
-1.525
 30
0.0
 10
1.369496038845573
 20
-1.525
 30
0.0
 10
1.380851751215258
 20
-1.525
 30
0.0
 10
1.392151013054856
 20
-1.525
 30
0.0
  0
LINE
  5
AE
330
1F
100
AcDbEntity
  8
0
  6
Continuous
 62
     7
370
    25
100
AcDbLine
 10
-1.9498031496
 20
1.74
 30
0.0
 11
-2.075
 21
1.74
 31
0.0
  0
LINE
  5
AF
330
1F
100
AcDbEntity
  8
0
  6
Continuous
 62
     7
370
    25
100
AcDbLine
 10
-2.075
 20
1.74
 30
0.0
 11
-2.075
 21
1.75
 31
0.0
  0
LINE
  5
B0
330
1F
100
AcDbEntity
  8
0
  6
Continuous
 62
     7
370
    25
100
AcDbLine
 10
-2.075
 20
1.75
 30
0.0
 11
-1.9498031496
 21
1.75
 31
0.0
  0
LINE
  5
B1
330
1F
100
AcDbEntity
  8
0
  6
Continuous
 62
     7
370
    25
100
AcDbLine
 10
-1.9498031496
 20
1.74
 30
0.0
 11
-1.9498031496
 21
1.75
 31
0.0
  0
LINE
  5
B2
330
1F
100
AcDbEntity
  8
0
  6
Continuous
 62
     7
370
    25
100
AcDbLine
 10
-1.5748031496
 20
2.125
 30
0.0
 11
-1.5748031496
 21
2.5
 31
0.0
  0
LINE
  5
B3
330
1F
100
AcDbEntity
  8
0
  6
Continuous
 62
     7
370
    25
100
AcDbLine
 10
-1.5748031496
 20
2.5
 30
0.0
 11
-1.5648031496
 21
2.49
 31
0.0
  0
LINE
  5
B4
330
1F
100
AcDbEntity
  8
0
  6
Continuous
 62
     7
370
    25
100
AcDbLine
 10
-1.5648031496
 20
2.49
 30
0.0
 11
-1.5648031496
 21
2.125
 31
0.0
  0
LINE
  5
B5
330
1F
100
AcDbEntity
  8
0
  6
Continuous
 62
     7
370
    25
100
AcDbLine
 10
-1.5748031496
 20
2.125
 30
0.0
 11
-1.5648031496
 21
2.125
 31
0.0
  0
LINE
  5
B6
330
1F
100
AcDbEntity
  8
0
  6
Continuous
 62
     7
370
    25
100
AcDbLine
 10
-2.44
 20
1.375
 30
0.0
 11
-2.45
 21
1.375
 31
0.0
  0
LINE
  5
B7
330
1F
100
AcDbEntity
  8
0
  6
Continuous
 62
     7
370
    25
100
AcDbLine
 10
-1.5748031496
 20
2.5
 30
0.0
 11
1.5748031496
 21
2.5
 31
0.0
  0
LINE
  5
B8
330
1F
100
AcDbEntity
  8
0
  6
Continuous
 62
     7
370
    25
100
AcDbLine
 10
1.5748031496
 20
2.5
 30
0.0
 11
1.5648031496
 21
2.49
 31
0.0
  0
LINE
  5
B9
330
1F
100
AcDbEntity
  8
0
  6
Continuous
 62
     7
370
    25
100
AcDbLine
 10
1.5648031496
 20
2.49
 30
0.0
 11
-1.5648031496
 21
2.49
 31
0.0
  0
LINE
  5
BA
330
1F
100
AcDbEntity
  8
0
  6
Continuous
 62
     7
370
    25
100
AcDbLine
 10
-2.44
 20
1.375
 30
0.0
 11
-2.44
 21
-2.125
 31
0.0
  0
LINE
  5
BB
330
1F
100
AcDbEntity
  8
0
  6
Continuous
 62
     7
370
    25
100
AcDbLine
 10
-2.44
 20
-2.125
 30
0.0
 11
-2.45
 21
-2.125
 31
0.0
  0
LINE
  5
BC
330
1F
100
AcDbEntity
  8
0
  6
Continuous
 62
     7
370
    25
100
AcDbLine
 10
-2.45
 20
-2.125
 30
0.0
 11
-2.45
 21
1.375
 31
0.0
  0
LINE
  5
BD
330
1F
100
AcDbEntity
  8
0
  6
Continuous
 62
     7
370
    25
100
AcDbLine
 10
1.5748031496
 20
2.5
 30
0.0
 11
1.5748031496
 21
2.125
 31
0.0
  0
LINE
  5
BE
330
1F
100
AcDbEntity
  8
0
  6
Continuous
 62
     7
370
    25
100
AcDbLine
 10
1.5748031496
 20
2.125
 30
0.0
 11
1.5648031496
 21
2.125
 31
0.0
  0
LINE
  5
BF
330
1F
100
AcDbEntity
  8
0
  6
Continuous
 62
     7
370
    25
100
AcDbLine
 10
1.5648031496
 20
2.125
 30
0.0
 11
1.5648031496
 21
2.49
 31
0.0
  0
LINE
  5
C0
330
1F
100
AcDbEntity
  8
0
  6
Continuous
 62
     7
370
    25
100
AcDbLine
 10
-2.075
 20
-2.49
 30
0.0
 11
-2.075
 21
-2.5
 31
0.0
  0
LINE
  5
C1
330
1F
100
AcDbEntity
  8
0
  6
Continuous
 62
     7
370
    25
100
AcDbLine
 10
1.9498031496
 20
1.75
 30
0.0
 11
1.9498031496
 21
1.74
 31
0.0
  0
LINE
  5
C2
330
1F
100
AcDbEntity
  8
0
  6
Continuous
 62
     7
370
    25
100
AcDbLine
 10
-2.075
 20
-2.49
 30
0.0
 11
2.075
 21
-2.49
 31
0.0
  0
LINE
  5
C3
330
1F
100
AcDbEntity
  8
0
  6
Continuous
 62
     7
370
    25
100
AcDbLine
 10
2.075
 20
-2.49
 30
0.0
 11
2.075
 21
-2.5
 31
0.0
  0
LINE
  5
C4
330
1F
100
AcDbEntity
  8
0
  6
Continuous
 62
     7
370
    25
100
AcDbLine
 10
2.075
 20
-2.5
 30
0.0
 11
-2.075
 21
-2.5
 31
0.0
  0
LINE
  5
C5
330
1F
100
AcDbEntity
  8
0
  6
Continuous
 62
     7
370
    25
100
AcDbLine
 10
2.44
 20
-2.125
 30
0.0
 11
2.44
 21
-1.535
 31
0.0
  0
LINE
  5
C6
330
1F
100
AcDbEntity
  8
0
  6
Continuous
 62
     7
370
    25
100
AcDbLine
 10
2.075
 20
1.74
 30
0.0
 11
1.9498031496
 21
1.74
 31
0.0
  0
LINE
  5
C7
330
1F
100
AcDbEntity
  8
0
  6
Continuous
 62
     7
370
    25
100
AcDbLine
 10
2.44
 20
-1.39
 30
0.0
 11
2.44
 21
1.375
 31
0.0
  0
LINE
  5
C8
330
1F
100
AcDbEntity
  8
0
  6
Continuous
 62
     7
370
    25
100
AcDbLine
 10
1.5320323042
 20
-1.39
 30
0.0
 11
2.44
 21
-1.39
 31
0.0
  0
LINE
  5
C9
330
1F
100
AcDbEntity
  8
0
  6
Continuous
 62
     7
370
    25
100
AcDbLine
 10
2.44
 20
-1.535
 30
0.0
 11
1.3971392132
 21
-1.535
 31
0.0
  0
LINE
  5
CA
330
1F
100
AcDbEntity
  8
0
  6
Continuous
 62
     7
370
    25
100
AcDbLine
 10
2.44
 20
-2.125
 30
0.0
 11
2.45
 21
-2.125
 31
0.0
  0
LINE
  5
CB
330
1F
100
AcDbEntity
  8
0
  6
Continuous
 62
     7
370
    25
100
AcDbLine
 10
2.45
 20
1.375
 30
0.0
 11
2.44
 21
1.375
 31
0.0
  0
LINE
  5
CC
330
1F
100
AcDbEntity
  8
0
  6
Continuous
 62
     7
370
    25
100
AcDbLine
 10
2.075
 20
1.75
 30
0.0
 11
2.075
 21
1.74
 31
0.0
  0
LINE
  5
CD
330
1F
100
AcDbEntity
  8
0
  6
Continuous
 62
     7
370
    25
100
AcDbLine
 10
2.44
 20
-1.535
 30
0.0
 11
2.45
 21
-1.525
 31
0.0
  0
LINE
  5
CE
330
1F
100
AcDbEntity
  8
0
  6
Continuous
 62
     7
370
    25
100
AcDbLine
 10
2.45
 20
-1.525
 30
0.0
 11
2.45
 21
-2.125
 31
0.0
  0
LINE
  5
CF
330
1F
100
AcDbEntity
  8
0
  6
Continuous
 62
     7
370
    25
100
AcDbLine
 10
2.45
 20
1.375
 30
0.0
 11
2.45
 21
-1.4
 31
0.0
  0
LINE
  5
D0
330
1F
100
AcDbEntity
  8
0
  6
Continuous
 62
     7
370
    25
100
AcDbLine
 10
2.45
 20
-1.4
 30
0.0
 11
2.44
 21
-1.39
 31
0.0
  0
LINE
  5
D1
330
1F
100
AcDbEntity
  8
0
  6
Continuous
 62
     7
370
    25
100
AcDbLine
 10
1.3921510131
 20
-1.525
 30
0.0
 11
2.45
 21
-1.525
 31
0.0
  0
LINE
  5
D2
330
1F
100
AcDbEntity
  8
0
  6
Continuous
 62
     7
370
    25
100
AcDbLine
 10
2.45
 20
-1.4
 30
0.0
 11
1.5095394805
 21
-1.4
 31
0.0
  0
LINE
  5
D3
330
1F
100
AcDbEntity
  8
0
  6
Continuous
 62
     7
370
    25
100
AcDbLine
 10
1.9498031496
 20
1.75
 30
0.0
 11
2.075
 21
1.75
 31
0.0
  0
ARC
  5
D4
330
1F
100
AcDbEntity
  8
0
  6
Continuous
 62
     7
370
    25
100
AcDbCircle
 10
-2.075
 20
1.375
 30
0.0
 40
0.3649999999999998
100
AcDbArc
 50
90.0
 51
180.0
  0
ARC
  5
D5
330
1F
100
AcDbEntity
  8
0
  6
Continuous
 62
     7
370
    25
100
AcDbCircle
 10
-2.075
 20
1.375
 30
0.0
 40
0.3750000000000004
100
AcDbArc
 50
90.0
 51
180.0
  0
ARC
  5
D6
330
1F
100
AcDbEntity
  8
0
  6
Continuous
 62
     7
370
    25
100
AcDbCircle
 10
-2.075
 20
-2.125
 30
0.0
 40
0.3650000000000007
100
AcDbArc
 50
180.0
 51
270.0
  0
ARC
  5
D7
330
1F
100
AcDbEntity
  8
0
  6
Continuous
 62
     7
370
    25
100
AcDbCircle
 10
-2.075
 20
-2.125
 30
0.0
 40
0.3749999999999991
100
AcDbArc
 50
180.0
 51
270.0
  0
ARC
  5
D8
330
1F
100
AcDbEntity
  8
0
  6
Continuous
 62
     7
370
    25
100
AcDbCircle
 10
1.9498031496
 20
2.125
 30
0.0
 40
0.375
100
AcDbArc
 50
180.0
 51
270.0
  0
ARC
  5
D9
330
1F
100
AcDbEntity
  8
0
  6
Continuous
 62
     7
370
    25
100
AcDbCircle
 10
1.9498031496
 20
2.125
 30
0.0
 40
0.3850000000000002
100
AcDbArc
 50
180.0
 51
270.0
  0
ARC
  5
DA
330
1F
100
AcDbEntity
  8
0
  6
Continuous
 62
     7
370
    25
100
AcDbCircle
 10
2.075
 20
-2.125
 30
0.0
 40
0.3650000000000002
100
AcDbArc
 50
270.0
 51
0.0
  0
ARC
  5
DB
330
1F
100
AcDbEntity
  8
0
  6
Continuous
 62
     7
370
    25
100
AcDbCircle
 10
-1.9498031496
 20
2.125
 30
0.0
 40
0.3850000000000009
100
AcDbArc
 50
270.0
 51
0.0
  0
ARC
  5
DC
330
1F
100
AcDbEntity
  8
0
  6
Continuous
 62
     7
370
    25
100
AcDbCircle
 10
2.075
 20
1.375
 30
0.0
 40
0.3650000000000009
100
AcDbArc
 50
0.0
 51
90.0
  0
ARC
  5
DD
330
1F
100
AcDbEntity
  8
0
  6
Continuous
 62
     7
370
    25
100
AcDbCircle
 10
0.0
 20
-0.1
 30
0.0
 40
2.002803779959929
100
AcDbArc
 50
319.9019911444
 51
314.2341004729
  0
ARC
  5
DE
330
1F
100
AcDbEntity
  8
0
  6
Continuous
 62
     7
370
    25
100
AcDbCircle
 10
2.075
 20
-2.125
 30
0.0
 40
0.3750000000000009
100
AcDbArc
 50
270.0
 51
0.0
  0
ARC
  5
DF
330
1F
100
AcDbEntity
  8
0
  6
Continuous
 62
     7
370
    25
100
AcDbCircle
 10
2.075
 20
1.375
 30
0.0
 40
0.3749999999999996
100
AcDbArc
 50
0.0
 51
90.0
  0
ARC
  5
E0
330
1F
100
AcDbEntity
  8
0
  6
Continuous
 62
     7
370
    25
100
AcDbCircle
 10
0.0
 20
-0.1
 30
0.0
 40
1.99340685375207
100
AcDbArc
 50
319.3189724711
 51
314.3437595814
  0
ARC
  5
E1
330
1F
100
AcDbEntity
  8
0
  6
Continuous
 62
     7
370
    25
100
AcDbCircle
 10
-1.9498031496
 20
2.125
 30
0.0
 40
0.3750000000000007
100
AcDbArc
 50
270.0
 51
0.0
  0
ARC
  5
E2
330
1F
100
AcDbEntity
  8
0
  6
Continuous
 62
     7
370
    25
100
AcDbCircle
 10
0.0
 20
-0.1
 30
0.0
 40
1.968503937007869
100
AcDbArc
 50
318.669613798
 51
313.622582438
  0
CIRCLE
  5
226
330
21C
100
AcDbEntity
 67
     1
  8
0
  6
Continuous
 62
     7
370
    25
100
AcDbCircle
 10
1.25
 20
0.5
 30
0.0
 40
0.0979999999999988
  0
CIRCLE
  5
227
330
21C
100
AcDbEntity
 67
     1
  8
0
  6
Continuous
 62
     7
370
    25
100
AcDbCircle
 10
1.25
 20
-0.5
 30
0.0
 40
0.0979999999999988
  0
CIRCLE
  5
228
330
21C
100
AcDbEntity
 67
     1
  8
0
  6
Continuous
 62
     7
370
    25
100
AcDbCircle
 10
-1.25
 20
-0.5
 30
0.0
 40
0.0979999999999988
  0
CIRCLE
  5
22A
330
21C
100
AcDbEntity
 67
     1
  8
0
  6
Continuous
 62
     7
370
    25
100
AcDbCircle
 10
-1.25
 20
0.5
 30
0.0
 40
0.0979999999999985
  0
LINE
  5
258
330
21C
100
AcDbEntity
 67
     1
  8
0
  6
Continuous
 62
     7
370
    25
100
AcDbLine
 10
2.45
 20
0.94
 30
0.0
 11
-2.45
 21
0.94
 31
0.0
  0
LINE
  5
259
330
21C
100
AcDbEntity
 67
     1
  8
0
  6
Continuous
 62
     7
370
    25
100
AcDbLine
 10
1.5748031496
 20
-0.94
 30
0.0
 11
1.5748031496
 21
0.94
 31
0.0
  0
LINE
  5
25A
330
21C
100
AcDbEntity
 67
     1
  8
0
  6
Continuous
 62
     7
370
    25
100
AcDbLine
 10
-2.45
 20
-0.94
 30
0.0
 11
2.45
 21
-0.94
 31
0.0
  0
LINE
  5
25B
330
21C
100
AcDbEntity
 67
     1
  8
0
  6
Continuous
 62
     7
370
    25
100
AcDbLine
 10
-1.5748031496
 20
-0.94
 30
0.0
 11
-1.5748031496
 21
0.94
 31
0.0
  0
LINE
  5
25C
330
21C
100
AcDbEntity
 67
     1
  8
0
  6
Continuous
 62
     7
370
    25
100
AcDbLine
 10
2.44
 20
-0.95
 30
0.0
 11
-2.44
 21
-0.95
 31
0.0
  0
LINE
  5
25D
330
21C
100
AcDbEntity
 67
     1
  8
0
  6
Continuous
 62
     7
370
    25
100
AcDbLine
 10
-1.9498031496
 20
-0.95
 30
0.0
 11
-1.9498031496
 21
0.95
 31
0.0
  0
LINE
  5
25E
330
21C
100
AcDbEntity
 67
     1
  8
0
  6
Continuous
 62
     7
370
    25
100
AcDbLine
 10
1.9498031496
 20
0.95
 30
0.0
 11
1.9498031496
 21
-0.95
 31
0.0
  0
LINE
  5
25F
330
21C
100
AcDbEntity
 67
     1
  8
0
  6
Continuous
 62
     7
370
    25
100
AcDbLine
 10
-2.075
 20
0.95
 30
0.0
 11
-2.075
 21
-0.95
 31
0.0
  0
LINE
  5
260
330
21C
100
AcDbEntity
 67
     1
  8
0
  6
Continuous
 62
     7
370
    25
100
AcDbLine
 10
2.075
 20
-0.95
 30
0.0
 11
2.075
 21
0.95
 31
0.0
  0
LINE
  5
261
330
21C
100
AcDbEntity
 67
     1
  8
0
  6
Continuous
 62
     7
370
    25
100
AcDbLine
 10
-2.44
 20
0.95
 30
0.0
 11
2.44
 21
0.95
 31
0.0
  0
LINE
  5
262
330
21C
100
AcDbEntity
 67
     1
  8
0
  6
Continuous
 62
     7
370
    25
100
AcDbLine
 10
-2.45
 20
-0.94
 30
0.0
 11
-2.45
 21
0.94
 31
0.0
  0
LINE
  5
263
330
21C
100
AcDbEntity
 67
     1
  8
0
  6
Continuous
 62
     7
370
    25
100
AcDbLine
 10
2.45
 20
0.94
 30
0.0
 11
2.45
 21
-0.94
 31
0.0
  0
ARC
  5
264
330
21C
100
AcDbEntity
 67
     1
  8
0
  6
Continuous
 62
     7
370
    25
100
AcDbCircle
 10
-1.5648031496
 20
0.94
 30
0.0
 40
0.01
100
AcDbArc
 50
90.0
 51
180.0
  0
ARC
  5
265
330
21C
100
AcDbEntity
 67
     1
  8
0
  6
Continuous
 62
     7
370
    25
100
AcDbCircle
 10
1.5648031496
 20
0.94
 30
0.0
 40
0.01
100
AcDbArc
 50
360.0
 51
90.0
  0
ARC
  5
266
330
21C
100
AcDbEntity
 67
     1
  8
0
  6
Continuous
 62
     7
370
    25
100
AcDbCircle
 10
1.5648031496
 20
-0.94
 30
0.0
 40
0.01
100
AcDbArc
 50
270.0
 51
0.0
  0
ARC
  5
267
330
21C
100
AcDbEntity
 67
     1
  8
0
  6
Continuous
 62
     7
370
    25
100
AcDbCircle
 10
-1.5648031496
 20
-0.94
 30
0.0
 40
0.0100000000000002
100
AcDbArc
 50
180.0
 51
270.0
  0
ARC
  5
268
330
21C
100
AcDbEntity
 67
     1
  8
0
  6
Continuous
 62
     7
370
    25
100
AcDbCircle
 10
-2.44
 20
-0.94
 30
0.0
 40
0.0100000000000002
100
AcDbArc
 50
180.0
 51
270.0
  0
ARC
  5
269
330
21C
100
AcDbEntity
 67
     1
  8
0
  6
Continuous
 62
     7
370
    25
100
AcDbCircle
 10
-2.44
 20
0.94
 30
0.0
 40
0.0100000000000002
100
AcDbArc
 50
90.0
 51
180.0
  0
ARC
  5
26A
330
21C
100
AcDbEntity
 67
     1
  8
0
  6
Continuous
 62
     7
370
    25
100
AcDbCircle
 10
2.44
 20
-0.94
 30
0.0
 40
0.0100000000000002
100
AcDbArc
 50
270.0
 51
0.0
  0
ARC
  5
26B
330
21C
100
AcDbEntity
 67
     1
  8
0
  6
Continuous
 62
     7
370
    25
100
AcDbCircle
 10
2.44
 20
0.94
 30
0.0
 40
0.0100000000000002
100
AcDbArc
 50
0.0
 51
90.0
  0
VIEWPORT
  5
270
330
21C
100
AcDbEntity
 67
     1
  8
0
100
AcDbViewport
 10
0.0
 20
0.0
 30
0.0
 40
8.4
 41
6.4
 68
     1
 69
     1
 12
0.0
 22
0.0
 13
0.0
 23
0.0
 14
0.5
 24
0.5
 15
0.5
 25
0.5
 16
0.0
 26
0.0
 36
1.0
 17
0.0
 27
0.0
 37
0.0
 42
50.0
 43
0.0
 44
0.0
 45
5.1
 50
0.0
 51
0.0
 72
   100
 90
   557152
  1

281
     0
 71
     1
 74
     0
110
0.0
120
0.0
130
0.0
111
1.0
121
0.0
131
0.0
112
0.0
122
1.0
132
0.0
 79
     0
146
0.0
  0
ENDSEC
  0
SECTION
  2
OBJECTS
  0
DICTIONARY
  5
C
330
0
100
AcDbDictionary
281
     1
  3
ACAD_GROUP
350
D
  3
ACAD_LAYOUT
350
1A
  3
ACAD_MLINESTYLE
350
17
  3
ACAD_PLOTSETTINGS
350
19
  3
ACAD_PLOTSTYLENAME
350
E
  3
ACAD_SCALELIST
350
47
  0
DICTIONARY
  5
D
102
{ACAD_REACTORS
330
C
102
}
330
C
100
AcDbDictionary
281
     1
  0
DICTIONARY
  5
1A
102
{ACAD_REACTORS
330
C
102
}
330
C
100
AcDbDictionary
281
     1
  3
_Back
350
21D
  3
_Front
350
1E
  3
_Right
350
26
  3
Model
350
22
  0
DICTIONARY
  5
17
102
{ACAD_REACTORS
330
C
102
}
330
C
100
AcDbDictionary
281
     1
  3
Standard
350
18
  0
DICTIONARY
  5
19
102
{ACAD_REACTORS
330
C
102
}
330
C
100
AcDbDictionary
281
     1
  0
ACDBDICTIONARYWDFLT
  5
E
102
{ACAD_REACTORS
330
C
102
}
330
C
100
AcDbDictionary
281
     1
  3
Normal
350
F
100
AcDbDictionaryWithDefault
340
F
  0
DICTIONARY
  5
47
102
{ACAD_REACTORS
330
C
102
}
330
C
100
AcDbDictionary
281
     1
  3
A0
350
48
  3
A1
350
49
  3
A2
350
4A
  3
A3
350
4B
  3
A4
350
4C
  3
A5
350
4D
  3
A6
350
4E
  3
A7
350
4F
  3
A8
350
50
  3
A9
350
51
  3
B0
350
52
  3
B1
350
53
  3
B2
350
54
  3
B3
350
55
  3
B4
350
56
  3
B5
350
57
  3
B6
350
58
  3
B7
350
59
  3
B8
350
5A
  3
B9
350
5B
  3
C0
350
5C
  3
C1
350
5D
  3
C2
350
5E
  3
C3
350
5F
  3
C4
350
60
  3
C5
350
61
  3
C6
350
62
  3
C7
350
63
  3
C8
350
64
  3
C9
350
65
  3
D0
350
66
  3
D1
350
67
  3
D2
350
68
  0
LAYOUT
  5
21D
102
{ACAD_REACTORS
330
1A
102
}
330
1A
100
AcDbPlotSettings
  1

  2
none_device
  4
ANSI_A_(11.00_x_8.50_Inches)
  6

 40
6.35
 41
19.05
 42
6.35000508
 43
19.05000254
 44
279.4
 45
215.9
 46
133.34999746
 47
88.89999873
 48
0.0
 49
0.0
140
0.0
141
0.0
142
1.683
143
1.0
 70
  1696
 72
     0
 73
     0
 74
     1
  7

 75
     0
147
1.39999998
148
62.23
149
63.5
100
AcDbLayout
  1
_Back
 70
     1
 71
     3
 10
0.0
 20
0.0
 11
0.0
 21
0.0
 12
0.0
 22
0.0
 32
0.0
 14
-2.45
 24
-2.5
 34
0.0
 15
2.45
 25
2.5
 35
0.0
146
0.0
 13
0.0
 23
0.0
 33
0.0
 16
1.0
 26
0.0
 36
0.0
 17
0.0
 27
1.0
 37
0.0
 76
     0
330
21C
331
270
  0
LAYOUT
  5
1E
102
{ACAD_REACTORS
330
1A
102
}
330
1A
100
AcDbPlotSettings
  1

  2
none_device
  4
Letter_(8.50_x_11.00_Inches)
  6

 40
6.35
 41
6.35
 42
6.35001
 43
6.35001
 44
215.9
 45
279.4
 46
0.0
 47
0.0
 48
0.0
 49
0.0
140
0.0
141
0.0
142
1.0
143
0.4666666842
 70
   688
 72
     0
 73
     1
 74
     1
  7

 75
     0
147
2.1428570625
148
62.23
149
24.13
100
AcDbLayout
  1
_Front
 70
     1
 71
     1
 10
-2.5666668548
 20
-1.066666671
 11
2.566666671
 21
2.9000001444
 12
0.0
 22
0.0
 32
0.0
 14
1.0000000000E+20
 24
1.0000000000E+20
 34
1.0000000000E+20
 15
-1.0000000000E+20
 25
-1.0000000000E+20
 35
-1.0000000000E+20
146
0.0
 13
0.0
 23
0.0
 33
0.0
 16
1.0
 26
0.0
 36
0.0
 17
0.0
 27
1.0
 37
0.0
 76
     0
330
1B
331
26C
  0
LAYOUT
  5
26
102
{ACAD_REACTORS
330
1A
102
}
330
1A
100
AcDbPlotSettings
  1

  2
none_device
  4
Letter_(8.50_x_11.00_Inches)
  6

 40
6.35
 41
6.35
 42
6.35001
 43
6.35001
 44
215.9
 45
279.4
 46
0.0
 47
0.0
 48
0.0
 49
0.0
140
0.0
141
0.0
142
1.0
143
0.4666666842
 70
   688
 72
     0
 73
     1
 74
     1
  7

 75
     0
147
2.1428570625
148
62.23
149
24.13
100
AcDbLayout
  1
_Right
 70
     1
 71
     2
 10
0.0
 20
0.0
 11
0.0
 21
0.0
 12
0.0
 22
0.0
 32
0.0
 14
0.0
 24
0.0
 34
0.0
 15
0.0
 25
0.0
 35
0.0
146
0.0
 13
0.0
 23
0.0
 33
0.0
 16
1.0
 26
0.0
 36
0.0
 17
0.0
 27
1.0
 37
0.0
 76
     0
330
23
331
26E
  0
LAYOUT
  5
22
102
{ACAD_REACTORS
330
1A
102
}
330
1A
100
AcDbPlotSettings
  1

  2
none_device
  4
Letter_(8.50_x_11.00_Inches)
  6

 40
6.35
 41
6.35
 42
6.35000508
 43
6.35000508
 44
215.9
 45
279.4
 46
0.0
 47
0.0
 48
0.0
 49
0.0
140
0.0
141
0.0
142
1.0
143
1.0
 70
  1712
 72
     0
 73
     0
 74
     0
  7

 75
     0
147
1.0
148
0.0
149
0.0
100
AcDbLayout
  1
Model
 70
     1
 71
     0
 10
0.0
 20
0.0
 11
12.0
 21
9.0
 12
0.0
 22
0.0
 32
0.0
 14
-2.45
 24
-2.5
 34
0.0
 15
2.45
 25
2.5
 35
0.0
146
0.0
 13
0.0
 23
0.0
 33
0.0
 16
1.0
 26
0.0
 36
0.0
 17
0.0
 27
1.0
 37
0.0
 76
     0
330
1F
331
29
  0
MLINESTYLE
  5
18
102
{ACAD_REACTORS
330
17
102
}
330
17
100
AcDbMlineStyle
  2
Standard
 70
     0
  3

 62
   256
 51
90.0
 52
90.0
 71
     2
 49
0.5
 62
   256
  6
BYLAYER
 49
-0.5
 62
   256
  6
BYLAYER
  0
ACDBPLACEHOLDER
  5
F
102
{ACAD_REACTORS
330
E
102
}
330
E
  0
SCALE
  5
48
102
{ACAD_REACTORS
330
47
102
}
330
47
100
AcDbScale
 70
     0
300
1:1
140
1.0
141
1.0
290
     1
  0
SCALE
  5
49
102
{ACAD_REACTORS
330
47
102
}
330
47
100
AcDbScale
 70
     0
300
1:2
140
1.0
141
2.0
290
     0
  0
SCALE
  5
4A
102
{ACAD_REACTORS
330
47
102
}
330
47
100
AcDbScale
 70
     0
300
1:4
140
1.0
141
4.0
290
     0
  0
SCALE
  5
4B
102
{ACAD_REACTORS
330
47
102
}
330
47
100
AcDbScale
 70
     0
300
1:5
140
1.0
141
5.0
290
     0
  0
SCALE
  5
4C
102
{ACAD_REACTORS
330
47
102
}
330
47
100
AcDbScale
 70
     0
300
1:8
140
1.0
141
8.0
290
     0
  0
SCALE
  5
4D
102
{ACAD_REACTORS
330
47
102
}
330
47
100
AcDbScale
 70
     0
300
1:10
140
1.0
141
10.0
290
     0
  0
SCALE
  5
4E
102
{ACAD_REACTORS
330
47
102
}
330
47
100
AcDbScale
 70
     0
300
1:16
140
1.0
141
16.0
290
     0
  0
SCALE
  5
4F
102
{ACAD_REACTORS
330
47
102
}
330
47
100
AcDbScale
 70
     0
300
1:20
140
1.0
141
20.0
290
     0
  0
SCALE
  5
50
102
{ACAD_REACTORS
330
47
102
}
330
47
100
AcDbScale
 70
     0
300
1:30
140
1.0
141
30.0
290
     0
  0
SCALE
  5
51
102
{ACAD_REACTORS
330
47
102
}
330
47
100
AcDbScale
 70
     0
300
1:40
140
1.0
141
40.0
290
     0
  0
SCALE
  5
52
102
{ACAD_REACTORS
330
47
102
}
330
47
100
AcDbScale
 70
     0
300
1:50
140
1.0
141
50.0
290
     0
  0
SCALE
  5
53
102
{ACAD_REACTORS
330
47
102
}
330
47
100
AcDbScale
 70
     0
300
1:100
140
1.0
141
100.0
290
     0
  0
SCALE
  5
54
102
{ACAD_REACTORS
330
47
102
}
330
47
100
AcDbScale
 70
     0
300
2:1
140
2.0
141
1.0
290
     0
  0
SCALE
  5
55
102
{ACAD_REACTORS
330
47
102
}
330
47
100
AcDbScale
 70
     0
300
4:1
140
4.0
141
1.0
290
     0
  0
SCALE
  5
56
102
{ACAD_REACTORS
330
47
102
}
330
47
100
AcDbScale
 70
     0
300
8:1
140
8.0
141
1.0
290
     0
  0
SCALE
  5
57
102
{ACAD_REACTORS
330
47
102
}
330
47
100
AcDbScale
 70
     0
300
10:1
140
10.0
141
1.0
290
     0
  0
SCALE
  5
58
102
{ACAD_REACTORS
330
47
102
}
330
47
100
AcDbScale
 70
     0
300
100:1
140
100.0
141
1.0
290
     0
  0
SCALE
  5
59
102
{ACAD_REACTORS
330
47
102
}
330
47
100
AcDbScale
 70
     0
300
1/128" = 1'-0"
140
0.0078125
141
12.0
290
     0
  0
SCALE
  5
5A
102
{ACAD_REACTORS
330
47
102
}
330
47
100
AcDbScale
 70
     0
300
1/64" = 1'-0"
140
0.015625
141
12.0
290
     0
  0
SCALE
  5
5B
102
{ACAD_REACTORS
330
47
102
}
330
47
100
AcDbScale
 70
     0
300
1/32" = 1'-0"
140
0.03125
141
12.0
290
     0
  0
SCALE
  5
5C
102
{ACAD_REACTORS
330
47
102
}
330
47
100
AcDbScale
 70
     0
300
1/16" = 1'-0"
140
0.0625
141
12.0
290
     0
  0
SCALE
  5
5D
102
{ACAD_REACTORS
330
47
102
}
330
47
100
AcDbScale
 70
     0
300
3/32" = 1'-0"
140
0.09375
141
12.0
290
     0
  0
SCALE
  5
5E
102
{ACAD_REACTORS
330
47
102
}
330
47
100
AcDbScale
 70
     0
300
1/8" = 1'-0"
140
0.125
141
12.0
290
     0
  0
SCALE
  5
5F
102
{ACAD_REACTORS
330
47
102
}
330
47
100
AcDbScale
 70
     0
300
3/16" = 1'-0"
140
0.1875
141
12.0
290
     0
  0
SCALE
  5
60
102
{ACAD_REACTORS
330
47
102
}
330
47
100
AcDbScale
 70
     0
300
1/4" = 1'-0"
140
0.25
141
12.0
290
     0
  0
SCALE
  5
61
102
{ACAD_REACTORS
330
47
102
}
330
47
100
AcDbScale
 70
     0
300
3/8" = 1'-0"
140
0.375
141
12.0
290
     0
  0
SCALE
  5
62
102
{ACAD_REACTORS
330
47
102
}
330
47
100
AcDbScale
 70
     0
300
1/2" = 1'-0"
140
0.5
141
12.0
290
     0
  0
SCALE
  5
63
102
{ACAD_REACTORS
330
47
102
}
330
47
100
AcDbScale
 70
     0
300
3/4" = 1'-0"
140
0.75
141
12.0
290
     0
  0
SCALE
  5
64
102
{ACAD_REACTORS
330
47
102
}
330
47
100
AcDbScale
 70
     0
300
1" = 1'-0"
140
1.0
141
12.0
290
     0
  0
SCALE
  5
65
102
{ACAD_REACTORS
330
47
102
}
330
47
100
AcDbScale
 70
     0
300
1-1/2" = 1'-0"
140
1.5
141
12.0
290
     0
  0
SCALE
  5
66
102
{ACAD_REACTORS
330
47
102
}
330
47
100
AcDbScale
 70
     0
300
3" = 1'-0"
140
3.0
141
12.0
290
     0
  0
SCALE
  5
67
102
{ACAD_REACTORS
330
47
102
}
330
47
100
AcDbScale
 70
     0
300
6" = 1'-0"
140
6.0
141
12.0
290
     0
  0
SCALE
  5
68
102
{ACAD_REACTORS
330
47
102
}
330
47
100
AcDbScale
 70
     0
300
1'-0" = 1'-0"
140
12.0
141
12.0
290
     0
  0
ENDSEC
  0
EOF
